Soul Asylum - Somebody To Shove Chords & Tabs

 

Somebody To Shove Chords & Tabs

Soul Asylum Chords & Tabs

Version: 1 Type: Tab 0 ratings
1 star 2 stars 3 stars 4 stars 5 stars
comments

Somebody To Shove Tab

   
#----------------------------------PLEASE NOTE---------------------------------#
#This file is the author's own work and represents their interpretation of the #
#song. You may only use this file for private study, scholarship, or research. #
#------------------------------------------------------------------------------#

Soul Asylum - Somebody To Shove

Guitar 1 - Lead

-12------------------------15------14--------------------
----12----14--12-----12------12-------12---14------------
-------12--------12------------12-------12---------------
---------------------------------------------------------
---------------------------------------------------------
---------------------------------------------------------
Play this once at the beginning, and through the intro until the
verse starts, the second guitar is as follows in the verse
also, i am not sure what 'guitar 2' is doing while the lead
is going, is sounds almost like a "Em" not sure.. any insite
would be appriciated.

Guitar 2

---------------------------------------------------------
---------------------------------------------------------
-4-4-4-----------4-4-4-----------------------------------
-4-4-4----7-7-7--4-4-4--7-7-7----------------------------
-2-2-2----7-7-7--2-2-2--7-7-7----------------------------
----------5-5-5---------5-5-5----------------------------
Make sure you palm mute this or it will sound retarded :-)
the other tanscriptions i didn't see add this note
maybe i missed it, but just saying.. :-)

                   
--3-----------3-----------3-------------3-----------------------
----3----------3-----------3--------------3---------------------
------------2--------------------------0------------------------
--0---------2------------2-------------3------------------------
--2---------0------------2-------------2------------------------
--3----------------------0--------------------------------------



-3-----x--------------0---------------------------------
-0-----2-----4-4-4----1---------------------------------
-0-----2-----4-4-4----0---------------------------------
-0-----2-----4-4-4----2---------------------------------
-2-----0-----2-2-2----3---------------------------------
-3--------------------x---------------------------------
I'm waiting by the phone...
waiting for you to call me up...
these are the chords i think, agian any corrections would be 
welcomed..


you'll get the idea :-)
suggestions welcomes at unrest@junior.wariat.org
or an027@po.cwru.edu


***************************************************************************************************************

***************************************************************************************************************


From: pimentec@sas.upenn.edu (Chad B Pimentel)
Subject: tab_Soul Asylum_String_of_Pearls
Date: Sat, 16 Sep 1995 00:54:08 -0400 (EDT)

      
String of Pearls
Soul Asylum
Let Your Dim Light Shine
[ Tab from: http://www.guitartabs.cc/tabs/s/soul_asylum/somebody_to_shove_tab.html ]
This is a funky cyclical kinda song, that's also pretty simple to play.  
Strum with a 1 1-2-3-1 rhythm (listen to the cd and you'll get it easy).
I like to play the first "E" in the series in open voicing, and the 
second as a barre chord, for variety's sake.  This is my first posting, 
so bear with me.  Comments/hoots of laughter to Chad (pimentec@sas.upenn.edu)

Intro/Riff
   A           N/C      A  
e-----------------------------------------
b-----------------------------------------
g--2-2-2-4---7-7-7-6--2-2-2-4---0-0-0-2---
d-----------------------------------------
a-----------------------------------------
E-----------------------------------------


****************************************************************************************************************

****************************************************************************************************************


From shiv@lenti.med.umn.edu
Subject: CRD: The Sun Maid - Soul Asylum
To: guitar@nevada.edu
Date: Wed, 8 Jun 1994 12:20:11 -0500 (CDT)


Listed in "D"  Not necessarily like that on the CD.

The Sun Maid from Grave Dancers Union
Soul Asylum/David Pirner

INTRO (D G A A7 D Bm Em A A7)


CHORUS:
       D        (walk to)       G        A(Walk to) D
---------------------3---------------------2----------------------
---------------------3---------------------3----------------------
---------------------4---------------------2----------------------
-------0--2--4-------5--------------------------------------------
--------------------------------0--2--4---------------------------
------------------------------------------------------------------


Shiv A. Prasad
shiv@lenti.med.umn.edu


*****************************************************************************************************************

*****************************************************************************************************************


From: vetters@vax1.elon.edu (Steve Vetter)
Subject: IMPROVED: Without a Trace - Soul Asyalum

Soul Asylum - Without a Trace
I have updated what was posted a few months ago, and added some performance
notes.  I was doing this to help me band practice it and thought that I'd post
it.  The [electric guitar] guitar parts are played with power chords (I
think).  Best wishs, Steve Vetter 


G[320003]  Am[x02210]  C[x32010]  D[xx0232] 
----------------------------------------------
The intro chords are:

G Am C D

Then it goes:

e|---7---5---3---5---3----7-7--5--3--2--3--5--
B|---8---7---5---7---2----8-8--7--5--3--5--7--
G|--------------------------------------------

Then during the verse it goes the same intro chords but you play them like
an arpeggio.

[Intro riff]

(intro riff x2)


riff x3 (or ad lib variations on intro and out)
  /-\-/-\-/-\-/-\-/-\-/-\-/-\-/-\-/-\-/-\-/-\-/-\-/-\-/-\-/-\-/-\-/-\-/-\-/-\
  I  Steve Vetter                    I   "I'm not the same                  I
  \  vetters@vax1.elon.edu           I        As I was long ago,            /
  I  Elon College                    I    I've learned some new things      I
  /  Love School of Business         I        And I hope that it shows..."  \
  I  Alpha Kappa Psi                 I          -Neil Young  (Homefires)    I
  \-/-\-/-\-/-\-/-\-/-\-/-\-/-\-/-\-/-\-/-\-/-\-/-\-/-\-/-\-/-\-/-\-/-\-/-\-/
Comments