Soul Asylum - Misery Chords & Tabs

 

Misery Chords & Tabs

Soul Asylum Chords & Tabs

Version: 1 Type: Tab 0 ratings
1 star 2 stars 3 stars 4 stars 5 stars
comments

Misery Tab

   
#----------------------------------PLEASE NOTE---------------------------------#
#This file is the author's own work and represents their interpretation of the #
#song. You may only use this file for private study, scholarship, or research. #
#------------------------------------------------------------------------------#
From: sean foley
Date: 29 Aug 1995 19:20:06 GMT

Soul Asylum  - misery


here the tab for the first guitar to soul asylum's song misery.this is my first tab so please tell what you think of it.



                                     peace,love,empathy,
                                      sean foley
                                     chispa@planet.net                   


   intro:gtr.1 clean elec.
|---------3--r--|--------------r--------r--|--------3--r--|---------------------
|---3--------e--|--3--------3--e--------e--|--3--------e--|---------------------
|------5-----s--|-----5--------s--5-----s--|-----5-----s--|---------------------
|------------t--|--------5-----t-----5--t--|-----------t--|---------------------
|---------------|--------------------------|--------------|---------------------
|---------------|--------------------------|--------------|---------------------


                            1st verse
3-----------r-----------||---|-----r-----3--r-----r-----|-----------------------
---3-----3--e-----------||---|-----e--------e--1--e-----|-----------------------
------------s--5-----0--||---|-----s--0-----s-----s--0--|-----------------------
------5-----t-----5-----||---|-----t--------t-----t-----|-----------------------
------------------------||---|--3-----------------------|-----------------------
------------------------||---|--------------------------|-----------------------
                                         they say.....


---------3--r-----r-----|--------------r-----r--r--|----------------------------
---1--------e--1--e--0--|-----0-----0--e--1--e--e--|----------------------------
------0-----s-----s-----|--------------s-----s--s--|----------------------------
------------t-----t-----|--------2-----t-----t--t--|----------------------------
2-----------------------|--0-----------------------|----------------------------
------------------------|--------------------------|----------------------------



---------3--r-----------|--r-----r-----3--r-----r-----|-------------------------
---1--------e--1-----1--|--e-----e--------e--1--e--1--|-------------------------
------2-----s-----2-----|--s-----s--0-----s-----s-----|-------------------------
------------t-----------|--t-----t--------t-----t-----|-------------------------
3-----------------------|-----3-----------------------|-------------------------
------------------------|-----------------------------|-------------------------



---------3--r-----r-----|--|--------------r--0--r--r--|-------------------------
---1--------e--1--e--0--|--|-----------0--e-----e--e--|-------------------------
------0-----s-----s-----|--|-----5--------s-----s--s--|-------------------------
------------t-----t-----|--|--------7-----t-----t--t--|-------------------------
2-----------------------|--|--0-----------------------|-------------------------
------------------------|--|--------------------------|-------------------------



------------r--0--r--r--||--r--r--r--r--r--r--r--r--|---------------------------
---------0--e-----e--e--||--e--e--e--e--e--e--e--e--|---------------------------
---5--------s-----s--s--||--s--s--s--s--s--s--s--s--|---------------------------
7-----7-----t-----t--t--||--t--t--t--t--t--t--t--t--|---------------------------
------------------------||--------------------------|---------------------------
------------------------||--------------------------|---------------------------


 pre-chorus (dirty elec.)    fdbk.               full
-|--r--12--r--r--r--r-----|---(12)--r--r--r--r--r------|--------------------------
-|--e--13--e--e--e--e-----|---(13)--e--e--e--e--e------|--------------------------
-|--s--12--s--s--s--s-----|---(12)--s--s--s--s--s------|--------------------------
-|--t------t--t--t--t-----|-------t--t--t--t--t------|--------------------------
-|------------------------|-----------------------3--|--------------------------
-|------------------------|--------------------------|--------------------------
        frustaded......

     let ring_ _ _ _ fdbk. _ __ _ _ _ _ _ _ _ _ _
------r--r--r--r--r--------|---|--r--r--r--r--|---------------------------------
------e--e--e--e--e--------|---|--e--e--e--e--|---------------------------------
------s--s--s--s--s--------|---|--s--s--s--s--|---------------------------------
------t--t--t--t--t--------|---|--t--t--t--t--|---------------------------------
(3)------------------------|---|--------------|---------------------------------
----------------------(3)--|---|--------------|---------------------------------



5--5---x--5--r--5--x--5---r--3--|--------r--5--r--------|-----------------------
6--6---x--6--e--6--x--6---e--5--|--6--6--e-----e--6-----|-----------------------
5--5---x--5--s--5--x--5---s--5--|--5--5--s-----s-----5--|-----------------------
-------------t------------t-----|--------t-----t--------|-----------------------
--------------------------------|-----------------------|-----------------------
--------------------------------|-----------------------|-----------------------



---r--r--0--r-----------|--3--3--------3--------5--||---------------------------
1--e--e-----e--1--------|--3-----3--------3--------||---------------------------
0--s--s-----s-----0-----|--0--------0--------0-----||---------------------------
---t--t-----t-----------|--0-----------------------||---------------------------
------------------------|--------------------------||---------------------------
------------------------|--3-----------------------||---------------------------


chorus
----3--r-----r--3--r-----|--r--3--r-----------r--|------------------------------
-1-----e--3--e-----e--1--|--e-----e-----------e--|------------------------------
-0-----s--0--s-----s--2--|--s-----s-----------s--|------------------------------
-------t-----t-----t-----|--t-----t--3--2--0--t--|------------------------------
-------------------------|-----------------------|------------------------------
-------------------------|-----------------------|------------------------------
 put me out.......


r-----3--r-----r--3--r-----r--5--r-----r--r------||--r--r--r--|-----------------
e--1-----e--3--e-----e--5--e-----e--6--e--e--6---||--e--e--e--|-----------------
s--0-----s--0--s-----s--5--s-----s--5--s--s--5--*||--s--s--s--|-----------------
t--------t-----t-----t-----t-----t-----t--t-----*||--t--t--t--|-----------------
-------------------------------------------------||-----------|-----------------
-------------------------------------------------||-----------|-----------------



---3--r-----r--3--r-----|-----3--r-----------|--------3--r-----r--3--r-----|----
1-----e--3--e-----e--1--|--------e-----------|-----1-----e--3--e-----e--5--|----
0-----s--0--s-----s--2--|--------s-----------|-----0-----s--0--s-----s--5--|----
------t--0--t-----t--3--|--------t--3--2--0--|-----------t--0--t-----t--7--|----
3-----------------------|--------------------|-----3--------------------7--|----
---------3--------------|--------------------|--------------3-----------5--|----



r--5--r--1--r--r--1--r--|-----3--r-----r--3--r-----|--r--5--r-----r-----|-------
e-----e--1--e--e--1--e--|--1-----e--5--e-----e--5--|--e-----e--6--e--6--|-------
s-----s--2--s--s-----s--|--0-----s--0--s-----s--5--|--s-----s--5--s--5--|-------
t-----t--3--t--t-----t--|--------t--0--t-----t--7--|--t-----t--7--t-----|-------
---------3--------------|--3-----------------------|--------------------|-------
---------1--------------|--------------------------|--------------------|-------



---3--r-----r--3--r-------|--5--r--0--------3--|--------1-----0--------||-------
1-----e--3--e-----e-------|-----e-----1--1-----|--1--1-----1-----1--3--||-------
0-----s--0--s-----s--3/5--|-----s--------------|-----------------------||-------
------t--0--t-----t-------|-----t--------------|-----------------------||-------
3-------------------------|--------------------|-----------------------||-------
---------3----------------|--------------------|-----------------------||-------


guitar solo
-r--------r-------r--r--r-------|--r----------------------------|---------------
-e--2--3--e--3/5--e--e--e--(5)--|--e----------------------------|---------------
-s--------s-------s--s--s-------|--s--1--2-----4-----------(4)--|---------------
-t--------t-------t--t--t-------|--t----------------------------|---------------
--------------------------------|-------------------------------|---------------
--------------------------------|-------------------------------|---------------


                          full
----r--r------r--r--r--|-------r------------r---------r--|----------------------
12--e--e--10--e--e--e--|---12--e--(12)--10--e---------e--|----------------------
----s--s------s--s--s--|-------s------------s--11--9--s--|----------------------
----t--t------t--t--t--|-------t------------t---------t--|----------------------
-----------------------|---------------------------------|----------------------
-----------------------|---------------------------------|----------------------



------r-----r------r-----|--r-----------------------|---------------------------
------e-----e------e-----|--e-----------------------|---------------------------
9h11--s--9--s------s--9--|--s-----------------------|---------------------------
------t-----t--11--t-----|--t--11\9-----7-----9-----|---------------------------
-------------------------|--------------------------|---------------------------
-------------------------|--------------------------|---------------------------



------------------------------------------||--r-----------------------|---------
------------------------------------------||--e--5--------5-----------|---------
------------------------------------------||--s--5--------5-----------|---------
------------------------------------------||--t--5--------5-----------|---------
12\9-----9--------(9)\4/5\4/5-----(5)/9\7\||-----3--------3-----------|---------
------------------------------------------||--------------------------|---------


[ Tab from: http://www.guitartabs.cc/tabs/s/soul_asylum/misery_tab.html ]
3--------3-----------|--1--------1--------1--------|----------------------------
3--------3-----------|--1--------1--------1--------|----------------------------
0--------0-----------|--2--------2--------2--------|----------------------------
0--------0-----------|--3--------3--------3--------|----------------------------
---------------------|--3--------3--------3--------|----------------------------
3--------3-----------|--1--------1--------1--------|----------------------------



---1--------1-----1-----|--------10--10--------8--------|-----------------------
---1--------1-----1-----|-------------------------8-----|-----------------------
---2--------2-----2-----|-----0-------------------------|-----------------------
---3--------3-----3-----|-------------------------------|-----------------------
---3--------3-----3-----|-------------------------------|-----------------------
---1--------1-----1-----|-------------------------------|-----------------------



10--12-----10--------8--------|--10--8------------8--------|--------------------
------------------------8-----|------------10--------8-----|--------------------
------------------------------|----------------------------|--------------------
------------------------------|----------------------------|--------------------
------------------------------|----------------------------|--------------------
------------------------------|----------------------------|--------------------



10--8---------------------|--------10--10-----8--------|------------------------
----------10-----8--8-----|-----8----------------8-----|------------------------
--------------------------|----------------------------|------------------------
--------------------------|----------------------------|------------------------
--------------------------|----------------------------|------------------------
--------------------------|----------------------------|------------------------



10--12-----10--------8--------|--10--8---------------8--------|-----------------
------------------------8-----|------------10-----------8-----|-----------------
------------------------------|-------------------------------|-----------------
------------------------------|-------------------------------|-----------------
------------------------------|-------------------------------|-----------------
------------------------------|-------------------------------|-----------------


                            1/4
----8--------------------|---------------------------|--------------------------
10-----------------8-----|---12-----13--------15-----|--------------------------
----------9-----------0--|---------------------------|--------------------------
-------------------------|---------------------------|--------------------------
-------------------------|---------------------------|--------------------------
-------------------------|---------------------------|--------------------------



-----------------------------|--------------------------------|-----------------
15--13-------------------15--|-----13--15--13--15--13---------|-----------------
-----------12-----12---------|-------------------------12-----|-----------------
-----------------------------|--------------------------------|-----------------
-----------------------------|--------------------------------|-----------------
-----------------------------|--------------------------------|-----------------



--------------------------|--------------------------|--------------------------
--------8-----8-----8-----|--8-----8-----8-----8-----|--------------------------
---7/9-----9-----9-----9--|-----9-----9-----9-----9--|--------------------------
--------------------------|--------------------------|--------------------------
--------------------------|--------------------------|--------------------------
--------------------------|--------------------------|--------------------------



----------------------------|-----------------------------|---------------------
8------8------8------8------|--8------8------8------8-----|---------------------
---10-----10-----10-----10--|-----10-----10-----10--------|---------------------
----------------------------|-----------------------------|---------------------
----------------------------|-----------------------------|---------------------
----------------------------|-----------------------------|---------------------



------------------------|-----------------------------|-------------------------
---8-----6--------5-----|-----------------------------|-------------------------
------------------------|--7--------5-----------7-----|-------------------------
------------------------|-----------------------------|-------------------------
------------------------|-----------------------------|-------------------------
------------------------|-----------------------------|-------------------------



------------------------|---------------------------------|---------------------
8-----6-----------5-----|--6-----------8--9--(8)\6--6-----|---------------------
---------------0--------|-----------0------------------0--|---------------------
------------------------|---------------------------------|---------------------
------------------------|---------------------------------|---------------------
------------------------|---------------------------------|---------------------



------------------------|-----------------------|--------------------------|----
---8-----6--------5-----|-----------------------|--8-----6-----------5-----|----
------------------------|--7-----5--------7-----|-----------------0--------|----
------------------------|-----------------------|--------------------------|----
------------------------|-----------------------|--------------------------|----
------------------------|-----------------------|--------------------------|----



---------------------------|-----------||---------------------------------------
6--------5-----------3-----|--1--------||---------------------------------------
------0-----------0--------|-----------||---------------------------------------
---------------------------|-----------||---------------------------------------
---------------------------|-----------||---------------------------------------
---------------------------|-----------||---------------------------------------




========================================================================
========
==                           TABLATURE EXPLANATION                            ==
========================================================================
========

----------                            ----------
----5h8--- Hammeron                   ----(8)--- Ghost Note
----------                            ----------
----5p8--- Pulloff                    ----------

----------                            ----------
----5/8--- Slide Up                   -----x---- Dead Note
----------                            ----------
----5\8--- Slide Down                 ----------

----------                            ||------|| Repeat Start & End
----5~~~-- Vibrato                    ||*----*||
----------                            ||*----*||
----------                            ||------||

Rhythm:
  w = whole note            W = dotted whole
  h = half note             H = dotted half
  q = quarter note          Q = dotted quarter
  e = eighth note           E = dotted eighth
  s = sixteenth note        S = dotted sixteenth
  ^ = triplet

**********************************************************************************************************

**********************************************************************************************************

From: perob@aspen.uml.edu
Date: 12 Jun 95 10:19:13 -0500
Subject: TAB:Soul Asylum "Misery"

Soul Asylum- RMiseryS
From "Let Your Dim Light Shine"

Transcribed by Bryan Pero (perob@willow.uml.edu)

I saw Soul Asylum last Sunday, June 4 at the Paradise in Boston.  Was anyone
else at this show?  I was right in front, about three feet away from Dave and
the band!  They were excellent!! The new CD is excellent.  Go buy it!!!

This is how I form the verse chords, please forgive the mistakes I've probably
made in naming them:

Verse Chords
C7 -032013-
C7/B -020013-
Am7 -002213-
F9 -003213-

Chorus/Pre-Chorus Chords (Guitar 2 plays barre chords)
C -032010-
G -320033-
F -003210-
Am -002210-
 
There's a brief intro with a few chords played on the acoustic guitar over
Ryth.fig 1. that I couldn't work out.  If someone could help me, I'd greatly
appreciate it!!  If it helps, when I saw them live, it looked like he was
sliding back and forth from the 5th to the 7th fret.  I just couldn't get it...

Rythym fig 1. 

   C7          C7/B     Am7        F9
E-------3-----------3----------3----------3----|
B---------1-----------1----------1----------1--|
G----0------0-----------0---2---------2--------|
D----------------0------------2-----3---3------|
A--3---3-------2---2------0--------------------|
E----------------------------------------------|

Rythym fill 1.  

   w/slide
E-------------------------------------|
B--9/10\9~~~--------------------------|
G---------------------5/6\5/6\5/6\5---|
D-------------------------------------|
A-------------------------------------|
E-------------------------------------|


This fill also appears when Dave Pirner sings "incorporated", it's right at the
"-rated" part.  

 w/slide
E-----------|
B-----------|
G-----------|
D-----------|
A--5\3~~~~--|
E-----------|

Verse I-w/rythym figure 1.

Solo (I thing he picks out a D barre chord before the solo)
 (oh no! I forgot to listen for the chors played over the solo!  I'll try to
post them later, but I'm sure they're blatantly obvious...)

^^^^-vibrato
br-bend and release
/ -slide up
\ -slide down

E----------------------------------------------------|
B----------------------------------------------------|
G-------------------------17^^^-15^^^-17br-15--------|
D--12-13-15^^^--------------------------------17-15--|
A--------------12-13-15^^^---------------------------|
E----------------------------------------------------|

E----------------------------------------------------------|
B----------------------------------------------------------|
G----------------------------------------------------------|
D--15-17-15---15---12-10--8-10--8\5^^----------------------|
A-----------17-----------------------5/6\5/6^^-10\8\4^^^^--|
E----------------------------------------------------------|

Verse III-w/ryth.fig.1 and fill 1

Outro
C          G       F
====================

Repeat with background vocals and end on F,Am,G,C w/feedback.

That's about it!!

Please send me your comments!!

-Bryan P.
Comments