Soul Asylum - Closer To The Stars Chords & Tabs

 

Closer To The Stars Chords & Tabs

Soul Asylum Chords & Tabs

Version: 1 Type: Tab 0 ratings
1 star 2 stars 3 stars 4 stars 5 stars
comments

Closer To The Stars Tab

   
-------------------------------------------------------------------------------
            Closer to The Stars - Soul Asylum
-------------------------------------------------------------------------------
Tabbed by: Alex Umrysh
Email: Mad_Gouki@gmail.com

Note: Erick Rudiak (erude@ambient.acns.nwu.edu) transcribed the chords for this song
perfectly, except that he left the solo out leaving "(solo)" where the solo goes.  i
decided to try tabbing the solo and i feel that this is pretty accurate, some notes
might be in the tab where in the song they are skipped but they still fit the pattern
of the solo itself.  e-mail me any corrections you have, enjoy.

Tuning:Standard (EADGBe)

e|---------------------------------------------------------------------------|
B|---------------------------------------------------------------------------|
G|-----7---6---7---6---7---6---7---6---7---7/9-------------------------------|
D|---------------------------------------------------------------------------|
A|---------------------------------------------------------------------------|
E|---------------------------------------------------------------------------|

e|---------------------------------------------------------------------------|
B|---------------------------------------------------------------------------|
G|---------11/12---11---9---7---4--------------------------------------------|
D|---------------------------------------------------------------------------|
A|---------------------------------------------------------------------------|
E|---------------------------------------------------------------------------|
[ Tab from: http://www.guitartabs.cc/tabs/s/soul_asylum/closer_to_the_stars_tab.html ]
e|---------------------------------------------------------------------------|
B|-----------6---7---6---7---6---7---6---4/6---4---2-------------------------|
G|---------------------------------------------------------------------------|
D|---------------------------------------------------------------------------|
A|---------------------------------------------------------------------------|
E|---------------------------------------------------------------------------|

e|---------------------------------------------------------------------------|
B|---------------------------------------------------------------------------|
G|-------------------------------------------7-------5h7---7-7-8-7-7-8-------|
D|--------------0--3--0--3--0--3--5/7------7---------------------------------|
A|-----3/5-------------------------------------------------------------------|
E|---------------------------------------------------------------------------|

e|---------------------------------------------------------------------------|
B|---------------------------------------------------------------------------|
G|-10--10--10/12---12--12--12--12---10--9--10--9\7---------------------------|
D|---------------------------------------------------------------------------|
A|---------------------------------------------------------------------------|
E|---------------------------------------------------------------------------|

e|---------------------------------------------------------------------------|
B|---------------------------------------------------------------------------|
G|-9--10--9--10\7----9--10--9--10--9--10/12----------------------------------|
D|---------------------------------------------------------------------------|
A|---------------------------------------------------------------------------|
E|---------------------------------------------------------------------------|

e|---------------------------------------------------------------------------|
B|---------------------------------------------------------------------------|
G|-10--9--10--9--10--9\7-----------------------------------------------------|
D|---------------------------------------------------------------------------|
A|---------------------------------------------------------------------------|
E|---------------------------------------------------------------------------|



| /  slide up
| \  slide down
| h  hammer-on
| p  pull-off
| ~  vibrato
| +  harmonic
| x  Mute note
===============================================================================
Comments