Soul Asylum - Black Gold Chords & Tabs

 

Black Gold Chords & Tabs

Soul Asylum Chords & Tabs

Version: 1 Type: Chords

Black Gold Chords

   
Soul Asylum
"Black gold"
All chords and picking patterns are taken from live concert on ChazFest in 2007.

G  320033
e  022000
a  002210
C  032010
D  000232
a  002220
E7 020010

Intro
-----------------------------2-2-2-2-2----------------|
-----------------------------3-3-3-3-3----------------|
-----------0------0-----0----2-2-2-2-2----------------|
---------2------0-----0------0-0-0-0-0----------------|
---0-2-3------2-----0---------------------------------|
------------------------------------------------------|

Picking pattern 1
--10--9---7-7---5---5-3---3-3-2-----------------------|
--10--10--8-8---5---5-3---3-3-3-----------------------|
--11--9---7-7---6---6-4---4-4-2-----------------------|
------------------------------------------------------|
------------------------------------------------------|
------------------------------------------------------|


Two boys on a playground Trying to push eachother down

Picking pattern 2
 D
-2-0-2-3-2-0-2-----5----3-3-3-3-3--2------------------------|
-3-3-3-3-3-3-3-----5----3-3-3-3-3--3------------------------|
-2-2-2-2-2-2-2-----6----4-4-4-4-4--2------------------------|
------------------------------------------------------------|
------------------------------------------------------------|
------------------------------------------------------------|

See the crowd gather 'round Nothing attracts a crowd like a crowd
[ Tab from: http://www.guitartabs.cc/tabs/s/soul_asylum/black_gold_crd.html ]
 D
-2-0-2-3-2-0-2-----5----3-3-3-3-3--2------------------------|
-3-3-3-3-3-3-3-----5----3-3-3-3-3--3------------------------|
-2-2-2-2-2-2-2-----6----4-4-4-4-4--2------------------------|
------------------------------------------------------------|
------------------------------------------------------------|
------------------------------------------------------------|

G      D         G      D
Black gold in a white plight
          C            E7      a            D
Won't you fill up the tank, let's go for a ride
G        D           G        D
I don't care about no wheelchair
             C    E7     a           D
I've got so much left to do with my life

Moving backwards through time Never learn, never mind (pattern 2)
That side's yours, this side's mine Brother you ain't my kind (pattern 2)

You're a black soldier, white fight
Won't you fill up the tank let's go for a ride
Sure'd like to feel some pride
But this place just makes me feel sad inside
C        e                               a
Mother, do you know where your kids are tonight?


(Solo)

(pattern 1)

G D G D
C E7 a D


Keeps the kids of the streets Gives them something to do, something to eat
(pattern 2)
This spot was a playground This flat land used to be a town (pattern 2)
(pattern 2)

Black gold in a white plight
Won't you fill up the tank, let's go for a ride
Sure'd like to feel some pride
But this place just makes me feel sad inside

Black gold in a white plight
Won't you fill up the tank, let's go for a ride
I don't care 'bout no wheelchair
I've got so much left to do with my life

C e a

Ending: (pattern 1)


Soul Asylum Forever !!!!!!
oxygen909