Sotaisei Riron - Hyaku Nen Sensou Chords & Tabs

 

Hyaku Nen Sensou Chords & Tabs

Sotaisei Riron Chords & Tabs

Version: 1 Type: Bass Tab 0 ratings
1 star 2 stars 3 stars 4 stars 5 stars
comments

Hyaku Nen Sensou Bass Tab

   
Guitar on It's own

G|--------------------------------------|
D|-------------------------14-14--------|
A|-/9----------9-7--11-11---------------|
E|-----9--7--9----------------------7-9-|

G|----------------------------|
D|--------------------------6-|
A|-9----------9-7--------7----|
E|----9--7--9------7--9-------|

G|----------------------7-7-------|
D|-----------------6-6-------6----|
A|-9----------9-7---------------7-|
E|----9--7--9---------------------|

G|----------------------------|
D|--------------------------6-|
A|-9----------9-7--------7----|
E|----9--7--9------7--9-------|

G|----------------------9-9------|
D|-----------------9-9-----------|
A|-9----------9-7------------7---|
E|----9--7--9------------------7-|

G|-------------------------------------------------7-7-------|
D|--------------------------6-----------------6-6-------6----|
A|-9----------9-7--------7----9----------9-7---------------7-| x2
E|----9--7--9------7--9----------9--7--9---------------------|

G|-------------------------------------------------9-9-------|
D|--------------------------6-----------------9-9-------6----|
A|-9----------9-7--------7----9----------9-7---------------7-| 
E|----9--7--9------7--9----------9--7--9---------------------|

G|-------------------------------------------------7-7-------|
D|--------------------------6-----------------6-6-------6----|
A|-9----------9-7--------7----9----------9-7---------------7-| 
E|----9--7--9------7--9----------9--7--9---------------------|

G|------------------------------------99999999-|
D|-77777777-99999999-1111111111111111----------|
A|---------------------------------------------| x3
E|---------------------------------------------|

G|------------------|
D|-77777777-9--9----|
A|------------------|
E|------------------|

G|-------------------------------------------------7-7-------|
D|--------------------------6-----------------6-6-------6----|
A|-9----------9-7--------7----9----------9-7---------------7-| 
E|----9--7--9------7--9----------9--7--9---------------------|

G|-------------------------------------------------9-9-------|
D|--------------------------6-----------------9-9-------6----|
A|-9----------9-7--------7----9----------9-7---------------7-| 
E|----9--7--9------7--9----------9--7--9---------------------|
[ Tab from: http://www.guitartabs.cc/tabs/s/sotaisei_riron/hyaku_nen_sensou_btab.html ]
G|-------------------------------------------------7-7-------|
D|--------------------------6-----------------6-6-------6----|
A|-9----------9-7--------7----9----------9-7---------------7-| 
E|----9--7--9------7--9----------9--7--9---------------------|

G|------------------------------------99999999-|
D|-77777777-99999999-1111111111111111----------|
A|---------------------------------------------| x3
E|---------------------------------------------|

G|------------------|
D|-77777777-9--9----|
A|------------------|
E|------------------|

G|--------------------8---8--------------|
D|------------------6---6-------4---6----|
A|---------9---9--------------4---4------|
E|--9----7---7---------------------------|

G|--------------8-----------13----------------------------------|
D|---6--------6---6------11----11-----9-9-9-9-8-9-11------------|
A|-4---4------------6-------------11-----------------9-9-9-9----|
E|-------4------------------------------------------------------|

G|----------------------------------|
D|------------6-6-6-6---------------|
A|----------------------------------|
E|-7-7-7-7---------------9-9-9-9----|

G|--------------------------------------------------------------------------|
D|-----------------------------9-11--11-11-11-11-9-11-9-11-9-11-9-11-9------|
A|-9-9-9-9--9-10--11-11-11-11------------------------------------------11-9-|
E|--------------------------------------------------------------------------|

G|------------------------------------------------9-9-------|
D|-------------------------6-----------------9-9-------6----|
A|-9----------9-7--------7---9----------9-7---------------7-|
E|----9--7--9------7--9---------9--7--9---------------------|

G|------------------------------------------------7-7-------|
D|-------------------------6-----------------6-6-------6----|
A|-9----------9-7--------7---9----------9-7---------------7-| 
E|----9--7--9------7--9---------9--7--9---------------------|

G|------------------------------------99999999-|
D|-77777777-99999999-1111111111111111----------|
A|---------------------------------------------| x3
E|---------------------------------------------|

G|----------------------------8-9-11-/13-11-9--|
D|-77777777-99999999-11--9-11------------------|
A|---------------------------------------------| 
E|---------------------------------------------|

G|--------------------------------------|
D|--------------------------------------|
A|-----------------------------77777777-| x2
E|-55555555-77777777-999999999----------|

G|--------------------------------------|
D|--------------------------------------|
A|------/12--------------------77777777-|
E|-5555-----77777777-999999999----------|

G|------------|
D|------------|
A|------------|
E|-55555555-7-|
Comments