Sort Sol - Let Your Fingers Do The Walking Chords & Tabs

 

Let Your Fingers Do The Walking Chords & Tabs

Sort Sol Chords & Tabs

Version: 4 Type: Tab 0 ratings
1 star 2 stars 3 stars 4 stars 5 stars
comments

Let Your Fingers Do The Walking Tab

   
    _________________________________
   /Sort Sol                        / This song is Sort Sol's greatest hit ever - and with good reason!
  /Let Your Fingers Do The Walking /  Impressive how simple it actually is. Don't be confused by the 2nd
 /Glamourpuss                     /   guitar and the mandolin that also plays in.
/________________________________/


INTRO:
   D           Dsus4 D     A           G             D           Dsus4 D     A           G
E|-2-----2-----3-----2-----------5-----------3-----|-2-----2-----3-----2-----------5-----3-----5-----|
B|---3-----3-----3-----3-------5---5-------3---3---|---3-----3-----3-----3-------5---5-----3-----3---|
G|-----2-----2-----2-----2---6-------6---4-------4-|-----2-----2-----2-----2---6-------6-----4-----4-|
D|-------------------------7-----------5-----------|-------------------------7-----------------------|
A|-------------------------------------------------|-------------------------------------------------|
E|-------------------------------------------------|-------------------------------------------------|


   Bm          A           D                         Bm          A           D
 |-------2-----------0-----------2-----------2-----|-------2-----------0-----------2-----------2-----|
 |-----3---3-------2---2-------3---3-------3---3---|-----3---3-------2---2-------3---3-------3---3---|
 |-----------4-----------2---2-------2---2-------2-|-----------4-----------2---2-------2---2-------2-|
 |---4-----------2---------0-----------0-----------|---4-----------2---------0-----------0-----------|
 |-2-----------0-----------------------------------|-2-----------0-----------------------------------|
 |-------------------------------------------------|-------------------------------------------------|


   G           A           D           Dsus4 D       Bm          A           D
 |-------3-----------0-----------2-----3-----2-----|-------2-----------0-----------2-----------2-----|
 |-----3---3-------2---2-------3---3-----3-----3---|-----3---3-------2---2-------3---3-------3---3---|
 |-----------0-----------2---2-------2-----2-----2-|-----------4-----------2---2-------2---2-------2-|
 |---0-----------2---------0-----------------------|---4-----------2---------0-----------0-----------|
 |-------------0-----------------------------------|-2-----------0-----------------------------------|
 |-3-----------------------------------------------|-------------------------------------------------|



1st VERSE:
   Bm          A           D                         Bm          A           D
E|-------2-----------0-----------2-----------2-----|-------2-----------0-----------2-----------2-----|
B|-----3---3-------2---2-------3---3-------3---3---|-----3---3-------2---2-------3---3-------3---3---|
G|-----------4-----------2---2-------2---2-------2-|-----------4-----------2---2-------2---2-------2-|
D|---4-----------2---------0-----------0-----------|---4-----------2---------0-----------0-----------|
A|-2-----------0-----------------------------------|-2-----------0-----------------------------------|
E|-------------------------------------------------|-------------------------------------------------|
  There is a liquid sky all over the world          Tonight it comes for you body, it comes to set...

   G           A           D           Dsus4 D       Bm          A           D
 |-------3-----------0-----------2-----3-----2-----|-------2-----------0-----------2-----------2-----|
 |-----3---3-------2---2-------3---3-----3-----3---|-----3---3-------2---2-------3---3-------3---3---|
 |-----------0-----------2---2-------2-----2-----2-|-----------4-----------2---2-------2---2-------2-|
 |---0-----------2---------0-----------------------|---4-----------2---------0-----------0-----------|
 |-------------0-----------------------------------|-2-----------0-----------------------------------|
 |-3-----------------------------------------------|-------------------------------------------------|
  The cards have been dealt from our hands they...  There is a liquid sky all over the world


1st CHORUS:
   Bm          G           Bm          A             Bm          G           A
E|-------2-----------3-----------2-----------0-----|-------2-----------3-----------0-----------0-----|
B|-----3---3-------3---3-------3---3-------2---2---|-----3---3-------3---3-------2---2-------2---2---|
G|-----------4-----------0-----------4-----------2-|-----------4-----------0-----------2-----------2-|
D|---4-----------0-----------4-----------2---------|---4-----------0-----------2-----------2---------|
A|-2-----------------------2-----------0-----------|-2-----------------------0-----------0-----------|
E|-------------3-----------------------------------|-------------3-----------------------------------|
  Tonight

   Bm          G           Bm          A             Bm          G           A
 |-------2-----------3-----------2-----------0-----|-------2-----------3-----------0-----------0-----|
 |-----3---3-------3---3-------3---3-------2---2---|-----3---3-------3---3-------2---2-------2---2---|
 |-----------4-----------0-----------4-----------2-|-----------4-----------0-----------2-----------2-|
 |---4-----------0-----------4-----------2---------|---4-----------0-----------2-----------2---------|
 |-2-----------------------2-----------0-----------|-2-----------------------0-----------0-----------|
 |-------------3-----------------------------------|-------------3-----------------------------------|



2nd VERSE:
   Bm          A           D                         Bm          A           D
E|-------2-----------0-----------2-----------2-----|-------2-----------0-----------2-----------2-----|
B|-----3---3-------2---2-------3---3-------3---3---|-----3---3-------2---2-------3---3-------3---3---|
G|-----------4-----------2---2-------2---2-------2-|-----------4-----------2---2-------2---2-------2-|
D|---4-----------2---------0-----------0-----------|---4-----------2---------0-----------0-----------|
A|-2-----------0-----------------------------------|-2-----------0-----------------------------------|
E|-------------------------------------------------|-------------------------------------------------|
  Step out my sweet one and hang loose              Crystal cherry drapes filled who to choose
[ Tab from: http://www.guitartabs.cc/tabs/s/sort_sol/let_your_fingers_do_the_walking_tab_ver_4.html ]
   G           A           D           Dsus4 D       Bm          A           D
 |-------3-----------0-----------2-----3-----2-----|-------2-----------0-----------2-----------2-----|
 |-----3---3-------2---2-------3---3-----3-----3---|-----3---3-------2---2-------3---3-------3---3---|
 |-----------0-----------2---2-------2-----2-----2-|-----------4-----------2---2-------2---2-------2-|
 |---0-----------2---------0-----------------------|---4-----------2---------0-----------0-----------|
 |-------------0-----------------------------------|-2-----------0-----------------------------------|
 |-3-----------------------------------------------|-------------------------------------------------|
  With the moon rollin' in we can let our dreams... Step out my sweet one; step out and hang loose


INTERLUDE:
   D           Dsus4 D     A           G             D           Dsus4 D     A           G
E|-2-----2-----3-----2-----------5-----------3-----|-2-----2-----3-----2-----------5-----3-----5-----|
B|---3-----3-----3-----3-------5---5-------3---3---|---3-----3-----3-----3-------5---5-----3-----3---|
G|-----2-----2-----2-----2---6-------6---4-------4-|-----2-----2-----2-----2---6-------6-----4-----4-|
D|-------------------------7-----------5-----------|-------------------------7-----------------------|
A|-------------------------------------------------|-------------------------------------------------|
E|-------------------------------------------------|-------------------------------------------------|



3rd VERSE:
   Bm          A           D                         Bm          A           D
E|-------2-----------0-----------2-----------2-----|-------2-----------0-----------2-----------2-----|
B|-----3---3-------2---2-------3---3-------3---3---|-----3---3-------2---2-------3---3-------3---3---|
G|-----------4-----------2---2-------2---2-------2-|-----------4-----------2---2-------2---2-------2-|
D|---4-----------2---------0-----------0-----------|---4-----------2---------0-----------0-----------|
A|-2-----------0-----------------------------------|-2-----------0-----------------------------------|
E|-------------------------------------------------|-------------------------------------------------|
  Our liquid sky turns me on                        It'll speak out my name long after I'm gone

   G           A           D           Dsus4 D       Bm          A           D
 |-------3-----------0-----------2-----3-----2-----|-------2-----------0-----------2-----------2-----|
 |-----3---3-------2---2-------3---3-----3-----3---|-----3---3-------2---2-------3---3-------3---3---|
 |-----------0-----------2---2-------2-----2-----2-|-----------4-----------2---2-------2---2-------2-|
 |---0-----------2---------0-----------------------|---4-----------2---------0-----------0-----------|
 |-------------0-----------------------------------|-2-----------0-----------------------------------|
 |-3-----------------------------------------------|-------------------------------------------------|
  So I give myself in and It'll make me spin and... Ah, the liquid sky turns me on


2nd CHORUS:
   Bm          G           Bm          A             Bm          G           A
E|-------2-----------3-----------2-----------0-----|-------2-----------3-----------0-----------0-----|
B|-----3---3-------3---3-------3---3-------2---2---|-----3---3-------3---3-------2---2-------2---2---|
G|-----------4-----------0-----------4-----------2-|-----------4-----------0-----------2-----------2-|
D|---4-----------0-----------4-----------2---------|---4-----------0-----------2-----------2---------|
A|-2-----------------------2-----------0-----------|-2-----------------------0-----------0-----------|
E|-------------3-----------------------------------|-------------3-----------------------------------|
  Tonight

   Bm          G           Bm          A             Bm          G           A
 |-------2-----------3-----------2-----------0-----|-------2-----------3-----------0-----------0-----|
 |-----3---3-------3---3-------3---3-------2---2---|-----3---3-------3---3-------2---2-------2---2---|
 |-----------4-----------0-----------4-----------2-|-----------4-----------0-----------2-----------2-|
 |---4-----------0-----------4-----------2---------|---4-----------0-----------2-----------2---------|
 |-2-----------------------2-----------0-----------|-2-----------------------0-----------0-----------|
 |-------------3-----------------------------------|-------------3-----------------------------------|
  Let your fingers do the walking                   Can't you see I'm coming

   Bm          G           Bm          A             Bm          G           A
 |-------2-----------3-----------2-----------0-----|-------2-----------3-----------0-----------0-----|
 |-----3---3-------3---3-------3---3-------2---2---|-----3---3-------3---3-------2---2-------2---2---|
 |-----------4-----------0-----------4-----------2-|-----------4-----------0-----------2-----------2-|
 |---4-----------0-----------4-----------2---------|---4-----------0-----------2-----------2---------|
 |-2-----------------------2-----------0-----------|-2-----------------------0-----------0-----------|
 |-------------3-----------------------------------|-------------3-----------------------------------|
  Let you fingers do the walking

   Bm          G           Bm          A             Bm          G           A
 |-------2-----------3-----------2-----------0-----|-------2-----------3-----------0-----------0-----|
 |-----3---3-------3---3-------3---3-------2---2---|-----3---3-------3---3-------2---2-------2---2---|
 |-----------4-----------0-----------4-----------2-|-----------4-----------0-----------2-----------2-|
 |---4-----------0-----------4-----------2---------|---4-----------0-----------2-----------2---------|
 |-2-----------------------2-----------0-----------|-2-----------------------0-----------0-----------|
 |-------------3-----------------------------------|-------------3-----------------------------------|


   Bm
 |-------------------------------------------------|
 |-------3-----------------------------------------|
 |-----4-------------------------------------------|
 |---4---------------------------------------------|
 |-2-----------------------------------------------|
 |-------------------------------------------------|



That's it, a really sentimental song!
E-mail me at Maitinin@gmail.com for comments or corrections!
Comments