Sort Sol - Let Your Fingers Do The Walking Chords & Tabs

 

Let Your Fingers Do The Walking Chords & Tabs

Sort Sol Chords & Tabs

Version: 2 Type: Tab 0 ratings
1 star 2 stars 3 stars 4 stars 5 stars
comments

Let Your Fingers Do The Walking Tab

   
----------------------------------------------------------------------------
                     Sort sol - Let your fingers do the walkng
----------------------------------------------------------------------------

D  xx0232 | Bm   - 224432
A  x02220 | Dsus - xx0233
G  320033 |


[INTRO] 

First part 2x

     D       Dsus    A       G
e/|--2---2---3---2---0---0---3---3----------|
B||---3---3---3---3---2---2---3---3---------|
G||----2---2---2---2---2---2---0---0--------|
D||-----------------------------------------|
A||-----------------------------------------|
E\|-----------------------------------------|

Second part 2x

     Bm      A      D                              
e/|-----2------0------2-----2---------------|   
B||----3-3----2-2----3-3---3-3--------------|    
G||---4---4--2---2--2---2-2---2-------------|
D||--4-----4------0------0-----0------------|
A||-----------------------------------------|    
E\|-----------------------------------------|    

Then this
[ Tab from: http://www.guitartabs.cc/tabs/s/sort_sol/let_your_fingers_do_the_walking_tab_ver_2.html ]
     G       A      D      Dsus D                  
e/|-----3------0------2----3----2-----------|
B||----3-3----2-2----3-3----3----3----------|
G||---0---0--2---2--2---2----2----2---------|
D||--0-----0------0------0------------------|
A||-----------------------------------------|
E\|-----------------------------------------|

     Bm      A      D                              
e/|-----2------0------2-----2---------------|   
B||----3-3----2-2----3-3---3-3--------------|    
G||---4---4--2---2--2---2-2---2-------------|
D||--4-----4------0------0-----0------------|
A||-----------------------------------------|    
E\|-----------------------------------------|    


[VERS 1]

Bm A D
Bm A D 
G  A D 
Bm A D

[FILL/CHORUS]

Bm G Bm A 
Bm G A 
Bm G Bm A 
Bm G A

[VERS 2]

Bm A D
Bm A D 
G  A D 
Bm A D

[FILL/CHORUS]

D A G
D A G

[VERS 3]

Bm A D
Bm A D 
G  A D 
Bm A D

[FILL]

Bm G Bm A 
Bm G A 
Bm G Bm A 
Bm G A

Tabbed by Johan (krusborg87@hotmail.com)
Comments