Sorenson Taylor - Gloria Chords & Tabs

 

Gloria Chords & Tabs

Sorenson Taylor Chords & Tabs

Version: 1 Type: Tab 0 ratings
1 star 2 stars 3 stars 4 stars 5 stars
comments

Gloria Tab

Song: Gloria 34
Artist: Taylor Sorrensen
Album: Overflow

Quite simple, but beautiful. Best to finger this one because of the speed.

e-------------------
B-----------2-------
G-------2-----2---2-
D-----2---2-----2---	x2
A---0---------------
E-------------------

e-------------------
B-----------2-------
G-------2-----2---2-
D-----0---0-----0---	x3
A-------------------
E---2---------------

e-------------------
B-----------2-------
G-------2-----2---2-
D-----0---0-----0---	x1
A---2---------------
E-------------------
[ Tab from: http://www.guitartabs.cc/tabs/s/sorenson_taylor/gloria_tab.html ]
e-------------------
B-----------2-------
G-------2-----2---2-
D-----2---2-----2---	x2	(Same as first part)
A---0---------------
E-------------------

It's pretty much that throughout (A,B,C,A), except for one odd case where you just play A (the first part) for a few extra bars.

For some reason you can't post lyrics in a tab on this site. But you can find the lyrics here:

http://members.lycos.co.uk/markpeskett/Gloria%2034%20lyrics.txt
----------------------------------------------------------------------------------------

Any questions/comments etc feel free to e-mail or add to msn at markpeskett2@hotmail.com

Enjoy.
Comments