Sophie Ellis-bextor - Murder On The Dancefloor Chords & Tabs

 

Murder On The Dancefloor Chords & Tabs

Sophie Ellis-bextor Chords & Tabs

Version: 1 Type: Tab 0 ratings
1 star 2 stars 3 stars 4 stars 5 stars
comments

Murder On The Dancefloor Tab

   
Song Title: Murder On The Dancefloor
Artist/Band: Sophie Ellis-Bextor
Album: Read My Lips, 2002

Tab by JC Rea(jcrp_21@hotmail.com)

Symbols:

h=hammer-on
/=slide-up

INTRO:

Bass Line:

G|-----------|------------|
D|-----------|------------|
A|----2------|-----2------|
E|-0----2--5-|--0----2--5-|

RIFF:

e|----------------|
B|-----5-7/8h9-5--|
G|-4h6------------|
D|----------------|
A|----------------|
E|----------------|

"It's murder on the dancefloor 
 But you better not kill the groove
 Dj, gonna burn this goddamn house right down"


CHORDS FOR VERSE PARTS :

- G#m: 466444
- Gm:  355333
- F#m: 244222
- EMaj:076454 
   

1ST VERSE:

      G#m
"Oh, I know I know I know I know I know I know 

 G#m Gm   F#m    F#m-Gm
 About your kind 

     G#m
 And so and so and so and so and so 

 G#m  Gm  F#m       EMaj
 I'll have to play" 

RIFF:

e|----------------|
B|-----5-7/8h9-5--|
G|-4h6------------|
D|----------------|
A|----------------|
E|----------------|

CHORDS FOR CHORUS PARTS:

1st PART:
- EMaj:022100
- BMaj:799877
- F#m: 244222
- AMaj:577655

2nd PART:
- C#Maj:xx111099
- CMaj: xx10988
- BMaj: xx9877

CHORUS:

1st PART:

 EMaj      BMaj                 F#m
    "If you think you're getting away 

 AMaj
     I will prove you wrong 

 EMaj     BMaj            F#m
     I'll take you all the way 

 AMaj
     Boy, just come along 

 EMaj     BMaj      F#m  AMaj
     Hear me when I say" 

2nd PART:

 C#Maj
 "Hey, It's murder on the dancefloor 
          C#Maj       CMaj       BMaj   BMaj-CMaj           
  But you better not kill the groove 
  C#Maj
  It's murder on the dancefloor
          C#Maj       CMaj      BMaj 
  But you better not steal the moves
 
  Dj, gonna burn this goddamn house right down"

e|-12--12-----12--12--|
B|--x---x------x---x--|
G|--9---9------9---9--|
D|--------------------|
A|--------------------|
E|--------------------|


SECOND VERSE AND CHORUS ARE THE SAME.


SOLO:

e|--------------------------------------------|
B|-------2-4----------------------------------|
G|-1h3/4-----4--------------------------------|
D|-------------6-4-6-4--4/6-6--4-6--6-6--5-5--|
A|--------------------------------------------|
E|--------------------------------------------|


e|-----------------------------------------------|
B|------------------2-------2-------2--------2h4-|
G|---2----2h4---2h4-----2h4-----2h4------2h4-----|
D|-4---4-----------------------------------------|
A|-----------------------------------------------|
E|-----------------------------------------------|

[ Tab from: http://www.guitartabs.cc/tabs/s/sophie_ellis_bextor/murder_on_the_dancefloor_tab.html ]
e|-------------------2---2----|
B|-------2-4------4----4---4--|
G|-1h3/4-----4----4-----------|
D|-------------6--------------|
A|----------------------------|
E|----------------------------|


e|----------------------7-------------------14-----|-----------------|
B|-------------5----5/9---9/12-12-12--12/16----16\-|-----5-7/8h9-5---|
G|-----2-4-4/6---6---------------------------------|-4h6-------------|
D|-2h4---------------------------------------------|-----------------|
A|-------------------------------------------------|-----------------|
E|-------------------------------------------------|-----------------|

CHORUS:

Don't think you'll get away 
I will prove you wrong 
I'll take you all the way 
Boy, just come along
Hear me when I say 


Murder on the dancefloor 
But you better not kill the groove  
e|----------------------7-------------------14-----|-----------------|
B|-------------5----5/9---9/12-12-12--12/16----16\-|-----5-7/8h9-5---|
G|-----2-4-4/6---6---------------------------------|-4h6-------------|
D|-2h4---------------------------------------------|-----------------|
A|-------------------------------------------------|-----------------|
E|-------------------------------------------------|-----------------|
Murder on the dancefloor 
But you better not steal the moves 
Dj, gonna burn this goddamn house right down


Murder on the dancefloor 
But you better not kill the groove
Murder on the dancefloor 
But you better not steal the moves 
Dj, gonna burn this goddamn house right down

e|----------------------7-------------------14-----|-----------------|
B|-------------5----5/9---9/12-12-12--12/16----16\-|-----5-7/8h9-5---|
G|-----2-4-4/6---6---------------------------------|-4h6-------------|
D|-2h4---------------------------------------------|-----------------|
A|-------------------------------------------------|-----------------|
E|-------------------------------------------------|-----------------|

Murder on the dancefloor 
But you better not kill the groove
Murder on the dancefloor 
But you better not steal the moves 
Dj, gonna burn this goddamn house right down

e|----------------------7-------------------14-----|-----------------|
B|-------------5----5/9---9/12-12-12--12/16----16\-|-----5-7/8h9-5---|
G|-----2-4-4/6---6---------------------------------|-4h6-------------|
D|-2h4---------------------------------------------|-----------------|
A|-------------------------------------------------|-----------------|
E|-------------------------------------------------|-----------------|

Murder on the dancefloor 
But you better not kill the groove
Murder on the dancefloor 
But you better not steal the moves 
Dj, gonna burn this goddamn house right down

e|----------------|
B|-----5-7/8h9-5--|
G|-4h6------------|
D|----------------|
A|----------------|
E|----------------|. . .END


Comments: jcrp_21@hotmail.com
Comments