Sons Of Angels - Live And Learn Chords & Tabs

 

Live And Learn Chords & Tabs

Sons Of Angels Chords & Tabs

Version: 1 Type: Tab 0 ratings
1 star 2 stars 3 stars 4 stars 5 stars
comments

Live And Learn Tab

   
-------------------------------------------------------------------------------
			         LIVE AND LEARN - Crush 40
-------------------------------------------------------------------------------
Tabbed by: ygokazuki
Email: ygokazuki@gmail.com

Tuning: Standard - EADGBe

Intro (*=use second finger)
e|---------------|---------------|---------------|---------------|
B|---------------|---------------|---------------|---------------|
G|------9---9/11-|------9---9/11-|------9---9/11-|-14--13--11--9-|
D|------9---9/11-|------9---9/11-|------9---9/11-|-14--13--11--9-| x2
A|--*-*-7---7/9--|-0-0--7---7/9--|------7---7/9--|-12--11--9---7-|
E|-9-9-----------|---------------|-0-0-----------|---------------|
	On repeat, finish with
	e|---------------------------|
	B|---------------------------|
	G|---------------------------|
	D|-----9-----9-----9---9b11~-|
	A|---------------------------|
	E|-9-9---9-9---9-9---9-------|
[ Tab from: http://www.guitartabs.cc/tabs/s/sons_of_angels/live_and_learn_tab.html ]
Verse
e|---|---|---|----------|------------|
B|-*-|-*-|---|----------|------------|
G|-6-|-2-|-*-|-5/6--5/6-|-6--5--3--2-|
D|-6-|-2-|-6-|-5/6--5/6-|-6--5--3--2-| x2
A|-4-|-0-|-6-|-3/4--3/4-|-4--3--1--0-|
E|---|---|-4-|----------|------------|
	On repeat, another guitar plays this twice
	e|-------|
	B|-------|
	G|-------|
	D|-7-7p6-|
	A|-------|
	E|-------|

Pre-Chorus            Fast!
e|---|---|---|---|---|---------------|
B|-*-|-*-|-*-|-*-|-*-|---------------|
G|-2-|-4-|-6-|-4-|-6-|----------2--4-|
D|-2-|-4-|-6-|-4-|-6-|-2--4--6--2--4-| x2
A|-0-|-2-|-4-|-2-|-4-|-2--4--6--0--2-|
E|---|---|---|---|---|-0--4--4-------|
	On repeat, do for 2 meas. instead of and end with, Fast!
	e|--------|---|------------------|---|-------|-11\off the fretboard, then back on/16-|
	B|--------|-*-|------------------|-*-|-------|---------------------------------------|
	G|--------|-5-|------------------|-6-|-------|---------------------------------------|
	D|--------|-5-|------------------|-6-|-------|---------------------------------------|
	A|--------|-3-|------------------|-4-|-------|---------------------------------------|
	E|--------|---|------------------|---|-------|---------------------------------------|

Chorus - Same Chords as Intro, You'll Figure it Out
| /  slide up
| \  slide down
| h  hammer-on
| p  pull-off
| ~  vibrato
| +  harmonic
| x  mute note
| *  strum several times
===============================================================================
Comments