Sonny Sharrock - Space Ghost Coast To Coast Theme Chords & Tabs

 

Space Ghost Coast To Coast Theme Chords & Tabs

Sonny Sharrock Chords & Tabs

Version: 1 Type: Tab

Space Ghost Coast To Coast Theme Tab

   
-----------------------------------------------------------------------------
	     SPACE GHOST: COAST TO COAST THEME - Sonny Sharrock 
                                          (http://www.sonnysharrock.com/)
-----------------------------------------------------------------------------
Tabbed by: Brian Urtz
Email: acousticrock87@gmail.com

This song sounds harder than it is. It's pretty much all power chords with a
whammy effect.

I can't verify any of this, since I just tried to pick it out by ear, but
it seems to be close enough to get by on. The last two notes, in particular,
are difficult to determine because of the whammy effect, and seem to be 
harmonic, so I tabbed out what sounded closest without it. Any problems with 
timing should be easy to figure out by listening, because timing is easier 
to gauge through feel than tabualture. Also, the fast strumming at the end of 
the second measure is not necessarily all three strings at any given time. 

Anyway, if you see any mistakes or have any suggestions, please comment.


[ Tab from: http://www.guitartabs.cc/tabs/s/sonny_sharrock/space_ghost_coast_to_coast_theme_tab.html ]
Tuning: Standard (EADGBe) w/ Whammy
                                                     *
e|------------------------------------------------------------------|
B|------------------------------------------------------------------|
G|----5-5-5-5-5-5-5/9-7--------77775---5-5-5-5-5-5-5/107--------7-7-|
D|----5-5-5-5-5-5-5/9-7--------77775---5-5-5-5-5-5-5/107--------7-7-|
A|----3-3-3-3-3-3-3/7-5--------55553---3-3-3-3-3-3-3/8-5--------5-5-|
E|------------------------------------------------------------------|

   * * * * *
e|------------------------------------------------------------------|
B|/1010101010\9-9-9-9\8-8-8-8\7-7-7-6---5---4-----------------------|
G|/9-9-9-9-9-\8-8-8-8\7-7-7-7\6-6-6-5---4---3---77776666555544443---|
D|/7-7-7-7-7-\6-6-6-6\5-5-5-5\4-4-4-3---2---1---77776666555544443---|
A|----------------------------------------------55554444333322221---|
E|------------------------------------------------------------------|


e|------------------------------------------------------------------|
B|--------------------------------------------------8b9-------------|
G|----5-5-5-5-5-5-5/9-7--------7-7-10-7--9--------7-----------------|
D|----5-5-5-5-5-5-5/9-7--------7-7-10-7--9--------------------------|
A|----3-3-3-3-3-3-3/7-5--------5-5-8--5--7--------------------------|
E|------------------------------------------------------------------|

*These are 10s, not 1-0 trills, in case you were confused. However, if you
could pull those off I suppose it would sound decent.

|/ = slide up
|\ = slide down
|b = bend

=============================================================================