Sonics - Have Love Will Travel Chords & Tabs

 

Have Love Will Travel Chords & Tabs

Sonics Chords & Tabs

Version: 1 Type: Bass Tab 0 ratings
1 star 2 stars 3 stars 4 stars 5 stars
comments

Have Love Will Travel Bass Tab

You may recognize this song from a few Land Rover commercials.
Here's the bass part.

The Guitar does this same pattern twice, then enters the bass, and the rest of the band.


G----------------------------------------|
D------1-3--3-1-5--5-1-3--3-1------------|     X4
A-3--3------------------------3-1-3------|
E----------------------------------------|

[ Tab from: http://www.guitartabs.cc/tabs/s/sonics/have_love_will_travel_btab.html ]
G-----------------------|
D-----------------------|    X1
A-5-5-5-5-5-5-5-5-3-----|
E-----------------------|

G----------------------------------------|
D------1-3--3-1-5--5-1-3--3-1------------|     X4
A-3--3------------------------3-1-3------|
E----------------------------------------|

Just repeat like that. Only those two patterns. Its a fun easy song to play, hope you enjoyed.
Comments