Sonicflood - Every Move I Make Chords & Tabs

 

Every Move I Make Chords & Tabs

Sonicflood Chords & Tabs

Version: 1 Type: Tab

Every Move I Make Tab

----------------------------------------------------------------------------
			     Every Move I Make - SonicFlood
----------------------------------------------------------------------------
Tabbed by:dantheman8392
Email:dolphindan8392@yahoo.com

Tuning: Standard

The Strumming Should Come naturally if your familiar with the song.
If your not familiar listen to it for strumming its very easy.

And these power chords are very easy.

 intro x2
e|-----------------------------------------------------------------------|
B|-----------------------------------------------------------------------|
G|-------------5-----7----5----------------------------------------------|
D|-------5-----5-----7----5----------------------------------------------|
A|-------5-----3-----5----3----------------------------------------------|
E|-------3---------------------------------------------------------------|


Verse

Every Move I make, I make in you...

[ Tab from: http://www.guitartabs.cc/tabs/s/sonicflood/every_move_i_make_tab.html ]
e|-----------------------------------------------------------------------|
B|-----------------------------------------------------------------------|
G|-------------5-----7----5----------------------------------------------|
D|-------5-----5-----7----5----------------------------------------------|
A|-------5-----3-----5----3----------------------------------------------|
E|-------3---------------------------------------------------------------|

[ If Your Playing This With two guitars, in the background it sounds cool while during 
verse one guitar is playing:
B|-----3-3-3-555-7-7-7-555------------|
       V V V V^V V V V V^V  (V's=down)(^=up) ]

Chorus

Waves of Mercy, Waves Of Grace..

[in between chords in the chords palm mute in between as your setting your fingers for 
next chord. there is a 1-2 second pause between each chord change.]

e|-----------------------------------------------------------------------|
B|-----------------------------------------------------------------------|
G|-----------------------------------------------------------------------|
D|-------5-5---7-7---9-9--10-12------------------------------------------|
A|-------5-5---7-7---9-9--10-12------------------------------------------|
E|-------3-3---5-5---7-7--8--10------------------------------------------|

ORDER:

Intro

Verse

Chorus

Verse

Chorus X2

Outro [same as intro]