Sonic Youth - Mote Chords & Tabs

 

Mote Chords & Tabs

Sonic Youth Chords & Tabs

Version: 1 Type: Bass Tab 0 ratings
1 star 2 stars 3 stars 4 stars 5 stars
comments

Mote Bass Tab

			SONIC YOUTH
				mote

bass tab by chris lawrence

verse:

G-----------
D-----------
A-----------
E--5--6--10-

"all the time":

E--8---

"put me in the equation":

E--6--5---1-----\10--

next (fast) part:

D---------------------------------17\-
A-------------------------------------
E--\15--15-15-15--13\15-15-15-15------
[ Tab from: http://www.guitartabs.cc/tabs/s/sonic_youth/mote_btab.html ]
of course, that all repeats.. when you play that last riff before
the bridge, play this instead:

D-------------------------------------
A---------------------------------15\-
E--\15--15-15-15--13\15-15-15-15------

bridge notes:

D--13---12--
A-----------
E-----------

part after bridge:

E--10----3---

then it returns to the verse, and the outro jam begins on:

E--3---

and slowly erupts into:

E---0^3-3-- etc etc etc repeat ad nauseum

mustang@islandnet.com




Comments