Sonic Youth - Master Dik Chords & Tabs

 

Master Dik Chords & Tabs

Sonic Youth Chords & Tabs

Version: 1 Type: Bass Tab 0 ratings
1 star 2 stars 3 stars 4 stars 5 stars
comments

Master Dik Bass Tab

			SONIC YOUTH
             		     MASTER DIK

bass tab by chris lawrence

'one two one two..':

G-----6-----6-----6----6--------
D--5-----5-----5----5-----5\7-7-
A-------------------------------
E-------------------------------

'come on everybody..':

G--1-1-------
D------0-0-0- etc
A------------
E------------
[ Tab from: http://www.guitartabs.cc/tabs/s/sonic_youth/master_dik_btab.html ]
if you care, the note being played during the 'she's lookin good' sample
is an E on the 7th fret of the A string

'we're ciccone':

E--3-3-3-3-3-3-3-\7-7-7-7-7-7-

then:

G------------------------
D------------------------
A--0-0-------------------
E-------1-1-1-1-1-\5-5-5-

then..uh..i think you repeat just the F to A slide

then:

E--1-1-1-1-1- etc--

very end:

E--2-2-0-0-




Comments