Sonic Youth - Hotwire My Heart Chords & Tabs

 

Hotwire My Heart Chords & Tabs

Sonic Youth Chords & Tabs

Version: 1 Type: Bass Tab 0 ratings
1 star 2 stars 3 stars 4 stars 5 stars
comments

Hotwire My Heart Bass Tab

			SONIC YOUTH
			HOTWIRE MY HEART

Bass tab by Chris Lawrence

G--------------------------
D--------------------------
A--------------------------
E---5-5---1-1-1-1-1--1--3--

Verse:

G-------------------------------------------
D-------------------------------------------
A------------------------------------------- REPEAT
E--5-5-5-5-5-5-etc.---1-1-1-1-1-1-1-1-etc.--

"wire up the radio" part:
[ Tab from: http://www.guitartabs.cc/tabs/s/sonic_youth/hotwire_my_heart_btab.html ]
G--------------------------------
D--------------------------------
A--------------------------------
E--6-6-6-6-etc.--3-3-3-3-3-etc.--

Chorus:

G----------------------
D----------------------
A--3-3-3-3-3-----------
E------------3-3-3-3-3-

Then:

G-------------------------------------------------------------------
D-------------------------------------------------------------------
A--3-3-3-3-3-3-3-3-3------------------------------------------------
E----------------------1-1-1-1-1-1-1-1-etc.-3-3-3-3-3-3-3-3-3-etc.--

Then, under the brief solo, just play an A.

I can't guarantee that's all right, but it's okay.

Chris




Comments