Sonic Youth - Hits Of Sunshine Chords & Tabs

 

Hits Of Sunshine Chords & Tabs

Sonic Youth Chords & Tabs

Version: 2 Type: Bass Tab 0 ratings
1 star 2 stars 3 stars 4 stars 5 stars
comments

Hits Of Sunshine Bass Tab

Sonic Youth
"Hits of Sunshine"

Tabbed by Jonathan Martinez

jonthebassplayer@integrity.com

Intro

G----------------------------------------------------------------------
D--------5--5----------------------------------------------------------
A-----7--------7-------------------------------------------------------
E----------------------------------------------------------------------
this is played at the last measure of the intro.

Verse

G------------------------------|--|------------------------------------
D------------------------------|--|------------------------------------
A-----7--5--7--5--7--5---------|X2|-----7------------------------------
E-----------------------7--5---|--|------------------------------------
[ Tab from: http://www.guitartabs.cc/tabs/s/sonic_youth/hits_of_sunshine_btab_ver_2.html ]
G----------------------------------------------------------------------
D----5--4--------5--4--------5--4--------------------------------------
A----------5--7--------5-----------5-----------------------------------
E-------------------------7--------------------------------------------

Repeat this a few times, then it goes into the Improv Jam. The last 
time you are supposed to play the above progression, you start to play
the improv jam instead.

Improv Jam

G----------------------------------------------------------------------
D----------------------------------------------------------------------
A-----7--7-----5--5--5-------------------------------------------------
E-----------7-----------7----------------------------------------------

About 16 measures into the improv jam you turn on the fuzz/phase shift.
This progression is played through the end of the song.
Comments