Sonic Youth - Green Light Chords & Tabs

 

Green Light Chords & Tabs

Sonic Youth Chords & Tabs

Version: 2 Type: Bass Tab 0 ratings
1 star 2 stars 3 stars 4 stars 5 stars
comments

Green Light Bass Tab

			SONIC YOUTH
			   GREEN LIGHT

bass tab by chris lawrence

verse:

G----------------------------------
D--0-0-0-0-4-4-4-4-0-0-0-0-2-2-2-2-
A----------------------------------
E----------------------------------

about a minute in, she alters to:

D--0-0-0-0-7-7-7-7-0-0-0-0-6-6-6-6-

then for the rest of the verse, she alternates between those riffs

jam:
[ Tab from: http://www.guitartabs.cc/tabs/s/sonic_youth/green_light_btab_ver_2.html ]
G----------------------------
D--7-7-7-7-7 etc---0-0-0-0-0- etc
A----------------------------
E----------------------------

when she plays the open D's there, she tosses in some harmonics and lots
of 16th fret area notes, etc..improvise

jam outro:

G--13-13-13-etc-------------------------------------
D---------------------0-0-0- etc------ end on : --6-
A---------------------------------------------------
E---------------------------------------------------


Comments