Sonic Youth - Cinderellas Big Score Chords & Tabs

 

Cinderellas Big Score Chords & Tabs

Sonic Youth Chords & Tabs

Version: 1 Type: Bass Tab

Cinderellas Big Score Bass Tab

Artist: Sonic Youth
Song: Cinderellas Big Score
e-mail: iamtheowl133@aol.com


intro:

G----8-8-8-8-8-------8-8-8-8-8-8-| etc etc
D-10-----------10-10-------------|
A--------------------------------|
E--------------------------------|

then:

G-------------------------------------|
D--10-10-10-10-10---------------------|
A------------------10-10-10-10-10-10--| or 17th fret D
E-------------------------------------|

end on:

G-----------------------|
D--10------------10-----|
A-----------------------|
E-----------------------|

next part:

G----------------------|
D-10-10-10-10-10-10-10-| etc etc
A----------------------|
E----------------------|

verse:

G-------------------------------|
D-------------------------------|
A-------------------------------|
E--5-5-5-5-5-5-15-15-15-15-15---|

when she sings "you've really fucked up this time...":
[ Tab from: http://www.guitartabs.cc/tabs/s/sonic_youth/cinderellas_big_score_btab.html ]
G--------------------------|
D--------------------------|
A--------------------------|
E--5-5-5-5-5-5-3-3-3-3-3-3-|

repeat that section twice.

end on:

G-----------------|
D--10--------10---|
A-----------------|
E-----------------|

bridge:

G-----------------------------------------------------------------|
D--14-14-14-14-14-17-17-17-17-17-17-------------------------------|
A------------------------------------15-15-15-15-17-15-15-15-15---|
E-----------------------------------------------------------------|

then she repeats the end riff:

G-------------------------------------|
D-------------------------------------|
A--15-15-15-15-17-15-15-15-15-15-15---|
E-------------------------------------|

and ends on:

G-----------------------------|
D-----------------------------|
A--15-15-15-15-15-15-15-15-15-|
E-----------------------------|

then begin the intro riff again, lather, rinse, repeat, and you're through.
(final note is 3rd fret G)