Sonic Youth - Bubblegum Chords & Tabs

 

Bubblegum Chords & Tabs

Sonic Youth Chords & Tabs

Version: 1 Type: Tab 0 ratings
1 star 2 stars 3 stars 4 stars 5 stars
comments

Bubblegum Tab

#----------------------------------PLEASE NOTE---------------------------------#
#This file is the author's own work and represents their interpretation of the #
#song. You may only use this file for private study, scholarship, or research. #
#------------------------------------------------------------------------------##
from:mike abraham
bubbleGUM (rhythum) by SONIC YOUTH

this is the last track off the evol album

standard tuning (finally!)-EADGBE

iNt¨¿......


E|------------------------------------------|
B|------------------------------------------|
G|-4/-6/-9-4/-6-6-6-6-6---------------------|
D|-4/-6/-9-4/-6-6-6-6-6---------------------|
A|-2/-4/-7-2/-4-4-4-4-4---------------------|
E|------------------------------------------|


[ Tab from: http://www.guitartabs.cc/tabs/s/sonic_youth/bubblegum_tab.html ]
E|------------------------------------------|
B|------------------------------------------|
G|------6/-9----6-6-6-6-6-------------------|
D|-9-9--6/-9-9--6-6-6-6-6-------------------|
A|-9-9--4/-7-9--4-4-4-4-4-------------------|
E|-7-7-------7------------------------------|


E|------------------------------------------|
B|------------------------------------------|
G|------6/-9----6-6-6-6-6-------------------|
D|-9-9--6/-9-9--6-6-6-6-6-------------------|
A|-9-9--4/-7-9--4-4-4-4-4-------------------|
E|-7-7-------7------------------------------|



E|------------------------|----------------------------|
B|------------------------|----------------------------|
G|-----6----9------12-12-|-----6--9------6-------------|
D|-9---6----9---9--12-12-|-9---6--9--9---6-------------|
A|-9---4----7---9--10-10-|-9---4--7--9---4-------------|
E|-7------------7---------|-7---------7----------------|




E|-------------------------------------------------------|
B|-------------------------------------------------------|
G|-4-6-9-6---4-6-9-6---4-6-9-6--12-12-12-12-12/11/9 -----|
D|-4-6-9-6---4-6-9-6---4-6-9-6--12-12-12-12-12/11/9------|
A|-2-4-7-4---2-4-7-4---2-4-7-4--10-10-10-10-10/ 9/ 7-----|
E|-------------------------------------------------------|


Comments