Sonic Youth - 100 Percent Chords & Tabs

 

100 Percent Chords & Tabs

Sonic Youth Chords & Tabs

Version: 1 Type: Bass Tab 0 ratings
1 star 2 stars 3 stars 4 stars 5 stars
comments

100 Percent Bass Tab

Bass Tab for 100% by Sonic Youth from Dirty on DGC Records
Tabbed by Simon (SilvrRockt@aol.com)
=0D
Tune 1/2 step down  w/distortion      =

Here's the main riff of the verse (on the noise part just do a pick slide=
 on the G-string) h=3Dhammer
G ------------------ps                      =
[ Tab from: http://www.guitartabs.cc/tabs/s/sonic_youth/100_percent_btab.html ]
D ----------------------
A -----------2h4------
E -4-4-4-1-----------
               I can......
=0D
And the chorus
G --------------------------------------------------
D --------------------------------------------------
A -4------------------------------------------------
E --------------------------------------------------4
    I've been waitin for you just to say He's off to check his mind
=0D
On the All I know is you got no money part do a gradual slide from 1 to 1=
2 on the A-string.
=0D
And the outro
G ---------------
D ---------------
A -4------------
E --------------4  =

=0D
You have to hold these for a long time, so I hope you're good.=





Comments