Sonic Mayhem - March Of The Stroggs Chords & Tabs

 

March Of The Stroggs Chords & Tabs

Sonic Mayhem Chords & Tabs

Version: 1 Type: Tab 0 ratings
1 star 2 stars 3 stars 4 stars 5 stars
comments

March Of The Stroggs Tab

   
-------------------------------------------------------------------------------
			MARCH OF THE STROGGS - Sonic Mayhem
-------------------------------------------------------------------------------
www.sonicmayhem.com
Album - Quake 2 Soundtrack

Tabbed by: Mr AngryEyes
Email: vg_db@hotmail.com

Tuning: Dropped D (eBGDAD [high to low])
Scads of distortion.

e|--------------------------------------------------------------------------|
B|--------------------------------------------------------------------------|
G|--------------------------------------------------------------------------|
D|--7/8\7-5----4/5/4-2---------------7/8\7-5----4/5\4-22222---(quick up &---|
A|--7/8\7-5----4/5/4-2---x3 then-----7/8\7-5----4/5\4-22222-----down--------| play x 3
D|--7/8\7-5----4/5/4-2---------------7/8\7-5----4/5\4-22222---stumming)-----|
                                                      dudud

e|--------------------------------------------------------------------------|
B|--------------------------------------------------------------------------|
G|--------------------------------------------------------------------------|
D|--2222222--2222222-7---2222222-2222222-5----------------------------------|
A|--2222222--2222222-7---2222222-2222222-5----------------------------------| play x 4
D|--2222222--2222222-7---2222222-2222222-5----------------------------------|
    dududdd  dududdd b   dududdd dududdd b

e|--------------------------------------------------------------------------|
B|--------------------------------------------------------------------------|
G|--------------------------------------------------------------------------|
D|--11-10-9-5---11-10-9---11-10-9-5---11-10-9-5-----------------------------|
A|--11-10-9-5---11-10-9---11-10-9-5---11-10-9-5-----------------------------| play x 1
D|--11-10-9-5---11-10-9---11-10-9-5---11-10-9-5-----------------------------|
[ Tab from: http://www.guitartabs.cc/tabs/s/sonic_mayhem/march_of_the_stroggs_tab.html ]
e|--------------------------------------------------------------------------|
B|--------------------------------------------------------------------------|
G|--------------------------------------------------------------------------|
D|--8-7-6-2---8-7-6---8-7-6-2-----------------------------------------------|
A|--8-7-6-2---8-7-6---8-7-6-2-----------------------------------------------| play x 12
D|--8-7-6-2---8-7-6---8-7-6-2-----------------------------------------------|

e|--------------------------------------------------------------------------|
B|--------------------------------------------------------------------------|
G|--------------------------------------------------------------------------|
D|--11-10-9-5---11-10-9---11-10-9-5---11-10-9-5-----------------------------|
A|--11-10-9-5---11-10-9---11-10-9-5---11-10-9-5-----------------------------| play x 4
D|--11-10-9-5---11-10-9---11-10-9-5---11-10-9-5-----------------------------|

e|--------------------------------------------------------------------------|
B|--------------------------------------------------------------------------|
G|--------------------------------------------------------------------------|
D|--2222222--2222222-7---2222222-2222222-5----------------------------------|
A|--2222222--2222222-7---2222222-2222222-5----------------------------------| play x 4
D|--2222222--2222222-7---2222222-2222222-5----------------------------------|
    dududdd  dududdd b   dududdd dududdd b

e|--------------------------------------------------------------------------|
B|--------------------------------------------------------------------------|
G|--------------------------------------------------------------------------|
D|--7/8\7-5----4/5\4-2------------------------------------------------------|
A|--7/8\7-5----4/5\4-2------------------------------------------------------| play x 1
D|--7/8\7-5----4/5\4-2------------------------------------------------------|


| /  slide up
| \  slide down
| h  hammer-on
| p  pull-off
| ~  vibrato
| +  harmonic
| x  Mute note
| b  Bend
| d  Strum down
| u  Strum up
===============================================================================
Comments