Songs Ohia - Lioness Chords & Tabs

 

Lioness Chords & Tabs

Songs Ohia Chords & Tabs

Version: 1 Type: Tab 0 ratings
1 star 2 stars 3 stars 4 stars 5 stars
comments

Lioness Tab

   
Artist: Songs:Ohia (http://songsohia.com)
Song: Lioness (from the album 'the lioness')
Tabber: Andrew Biles

I got this album this morning, and I'm absolutely loving it.
This song sounded simple, so I just thought I'd work it out while I had my guitar with
me.

Guitar 1 just plays G#m, F#, E, throughout song.

Guitar 2 Intro
|--------------------|-------------------------------------------|
|-4--5p4-------------|-------4-----------------------------------|
|-8-------3-h4-4/6\4-|-4-4-4-4-----------------------------------|
|--------------------|-------------3-h4-4/6\4-----2----2-----2---|
|--------------------|----------------------------2----2-----2---|
|--------------------|------------------------0-0-0----0---0-0-0-|
                  x2   . . .
[ Tab from: http://www.guitartabs.cc/tabs/s/songs_ohia/lioness_tab.html ]
I realise there are a few more little second guitar parts to be added in, but those are 
main parts to the song, I'll try get round to updating it soon.
any questions? andrewbiles@hotmail.com
________________________
Chords:

  G#m  F#   E
|--4----2---0--|
|--4----2---0--|
|--4----3---1--|
|--6----4---2--|
|--6----4---2--|
|--4----2---0--|

________________________
Lyrics:

it is for me the eventual truth
of that look of the lioness to her man across the Nile
it is that look of the lioness to her man across the Nile
wanna feel my heart break if it must break in your jaws
want you to lick my blood off your paws

you can't get her fast enough (x6)

I will swim to you (x4)

whether you save you me
whether you savage me
want my last look to be the moon in your eyes
want my heart to break if it must break in your jaws
want you to lick my blood off your paws
it is for me the eventual truth

it is that look of the lioness to her man across the Nile (x2)

and you can't get here fast enough (x6)

I will swim to you
Comments