Sonata Arctica - Victorias Secret Chords & Tabs

 

Sonata Arctica Chords & Tabs

Version: 1 Type: Tab 0 ratings
1 star 2 stars 3 stars 4 stars 5 stars
comments

Victorias Secret Tab

   
                                VICTORIA'S SECRET
                          As recorded by Sonata Arctica
                    (From the 2003 Album WINTERHEART'S GUILD)

Words by T.kakko

Music by T.Kakko
Arranged by Sonata Arctica
Transcribed by T.Harada

          Gm                   Eb
   15 13 12 15 15 15    11 13 13 12 11 11

Gtr I (D# G# C# F# A# D#) - 'Jani - Riff '
Gtr II (D# G# C# F# A# D#) - 'Henrik - Key'
Gtr III (D# G# C# F# A# D#) - 'Henrik - Piano'
Gtr IV (D# G# C# F# A# D#) - 'Solo Part'
Gtr V (D# G# C# F# A# D#) - 'Jani - Lead'

 Intro
  Q=155
  Gm                                  Eb            Bb    F/A
 4/4
  Gtr I
                                PM|
|-------------|---------------------|-------------|---------------|
|-------------|---------------------|-------------|---------------|
|-------------|-----------------x-x-|--8----------|---------------|
|--5----------|-(5)-------------x-x-|--8----------|--8----7-------|
|--5----------|-(5)-------------x-x-|--6----------|--8----8-------|
|--3----------|-(3)-----------------|-------------|--6----5-------|
|
| Gtr II
|-15------17--|-15---13-------------|-------------|----------13---|
|-------------|----------15--13-----|---------13--|-15------------|
|-------------|---------------------|-15----------|---------------|
|-------------|---------------------|-------------|---------------|
|-------------|---------------------|-------------|---------------|
|-------------|---------------------|-------------|---------------|


  Gm                                      Eb              Bb      F/A
                                    PM|
|-----------------|---------------------|---------------|-------------|
|-----------------|---------------------|---------------|-------------|
|-----------------|-----------------x-x-|--8------------|-------------|
|--5--------------|-(5)-------------x-x-|--8------------|--8-------7--|
|--5--------------|-(5)-------------x-x-|--6------------|--8-------8--|
|--3--------------|-(3)-----------------|---------------|--6-------5--|
|
|-15--13--15--17--|-15---13-------------|-------15--13--|---------13--|
|-----------------|----------15--13-----|---------------|-15----------|
|-----------------|---------------------|-15------------|-------------|
|-----------------|---------------------|---------------|-------------|
|-----------------|---------------------|---------------|-------------|
|-----------------|---------------------|---------------|-------------|


  Gm                                      Eb            Bb    F/A
 4/4
                                    PM|
|-----------------|---------------------|-------------|---------------|
|-----------------|---------------------|-------------|---------------|
|-----------------|-----------------x-x-|--8----------|---------------|
|--5--------------|-(5)-------------x-x-|--8----------|--8----7-------|
|--5--------------|-(5)-------------x-x-|--6----------|--8----8-------|
|--3--------------|-(3)-----------------|-------------|--6----5-------|
|
|-15--13--15--17--|-15---13-------------|-------------|----------13---|
|-----------------|----------15--13-----|---------13--|-15------------|
|-----------------|---------------------|-15----------|---------------|
|-----------------|---------------------|-------------|---------------|
|-----------------|---------------------|-------------|---------------|
|-----------------|---------------------|-------------|---------------|


  Gm                                      Eb              Bb          F/A
                                    PM|
|-----------------|---------------------|---------------|-----------------|
|-----------------|---------------------|---------------|-----------------|
|-----------------|-----------------x-x-|--8------------|-----------------|
|--5--------------|-(5)-------------x-x-|--8------------|--8-----------7--|
|--5--------------|-(5)-------------x-x-|--6------------|--8-----------8--|
|--3--------------|-(3)-----------------|---------------|--6-----------5--|
|
|-15--13--15--17--|-15---13-------------|-------15--17--|-18--17--15------|
|-----------------|----------15--13-----|---------------|-------------15--|
|-----------------|---------------------|-15------------|-----------------|
|-----------------|---------------------|---------------|-----------------|
|-----------------|---------------------|---------------|-----------------|
|-----------------|---------------------|---------------|-----------------|


   Verse
    Cm                       Eb
||-------------------------|------------------------|
||o------------------------|------------------------|
||-------------------------|------------------------|
||--5----------------------|-8----------------------|
||o-3----------------------|-6----------------------|
||--3----------------------|-6----------------------|
|
|   Gtr III
||-------20-22-23----20----|------15-17-18----15----|
||o---20----------20----20-|---16----------16----16-|
||-------------------------|------------------------|
||-------------------------|------------------------|
||o------------------------|------------------------|
||-------------------------|------------------------|


  F                         Gm
|-------------------------|------------------------||
|-------------------------|-----------------------o||
|-------------------------|------------------------||
|-10----------------------|-12---------------------||
|--8----------------------|-10--------------------o||
|--8----------------------|-10---------------------||
|
|-------13-15-17----13----|-------15-17-18--15-----||
|----13----------13----13-|----15--------------15-o||
|-------------------------|------------------------||
|-------------------------|------------------------||
|-------------------------|-----------------------o||
|-------------------------|------------------------||


  Cm                       Eb
     PM|      PM|      PM     PM|      PM|      PM
|------------------------|------------------------|
|------------------------|------------------------|
|------------------------|------------------------|
|-5--------5--------5----|-8--------8--------8----|
|-3--3--3--3--3--3--3--3-|-6--6--6--6--6--6--6--6-|
|-3--3--3--3--3--3--3--3-|-6--6--6--6--6--6--6--6-|
|
|------20-22-23----20----|------15-17-18----15----|
|---20-20-22-23-20-20-20-|---16-15-17-18-16-16-16-|
|---20----------20----20-|---17----------17----17-|
|------------------------|------------------------|
|------------------------|------------------------|
|------------------------|------------------------|


  F                         Gm
      PM|      PM|      PM      PM|      PM|      PM
|-------------------------|--------------------------|
|-------------------------|--------------------------|
|-------------------------|--------------------------|
|-10-------10-------10----|-12-------12-------12-----|
|--8--8--8--8--8--8--8--8-|-10-10-10-10-10-10-10-10--|
|--8--8--8--8--8--8--8--8-|-10-10-10-10-10-10-10-10--|
|
|-------13-15-17----13----|-------15-17-18----15-----|
|----13-13-15-17-13-13-13-|----15-15-17-18----15-15--|
|----14----------14----14-|----15----------------15--|
|-------------------------|--------------------------|
|-------------------------|--------------------------|
|-------------------------|--------------------------|


  Cm                       Eb
     PM|      PM|      PM     PM|      PM|      PM
|------------------------|------------------------|
|------------------------|------------------------|
|------------------------|------------------------|
|-5--------5--------5----|-8--------8--------8----|
|-3--3--3--3--3--3--3--3-|-6--6--6--6--6--6--6--6-|
|-3--3--3--3--3--3--3--3-|-6--6--6--6--6--6--6--6-|
|
|------20-22-23----20----|------15-17-18----15----|
|---20-20-22-23-20-20-20-|---16-15-17-18-16-16-16-|
|---20----------20----20-|---17----------17----17-|
|------------------------|------------------------|
|------------------------|------------------------|
|------------------------|------------------------|


  F                       Gm
      PM|      PM|    PM      PM|      PM|
|-----------------------|-----------------------||
|-----------------------|-----------------------||
|-----------------------|-----------------------||
|-10-------10------10---|-10-------10------10---||
|--8--8--8--8--8-8--8-8-|--8--8--8--8--8-8--8---||
|--8--8--8--8--8-8--8-8-|--8--8--8--8--8-8--8---||
|
|-------13-15-22---18---|-------13-15-22---20---||
|----13-13-15-22---18---|----13-13-15-22---20---||
|----14-----------------|----14-----------------||
|-----------------------|-----------------------||
|-----------------------|-----------------------||
|-----------------------|-----------------------||


 Bridge
  Gm    F/A    Bb   C       Gm   F/A    Bb   C
|------------|------------|-----------|------------|
|------------|------------|-----------|------------|
|------------|------------|-----------|------------|
|--5----7----|-8----10----|-5----7----|-8----10----|
|--5----8----|-8----10----|-5----8----|-8----10----|
|--3----5----|-6-----8----|-3----5----|-6-----8----|
|
|-18---------|------------|-----------|------------|
|-18---------|------------|-----------|------------|
|------------|------------|-----------|------------|
|------------|------------|-----------|------------|
|------------|------------|-----------|------------|
|------------|------------|-----------|------------|


  Gm   F/A    Bb   C       Gm   F/A    Bb   C
|-----------|------------|-----------|------------|
|-----------|------------|-----------|------------|
|-----------|------------|-----------|------------|
|-5----7----|-8----10----|-5----7----|-8----10----|
|-5----8----|-8----10----|-5----8----|-8----10----|
|-3----5----|-6-----8----|-3----5----|-6-----8----|


   Chorus
    Gm                         Eb         Bb   F/A
                         PM|
||-----------|---------------|----------|-----------|
||o----------|---------------|----------|-----------|
||-----------|-----------x-x-|-8--------|-----------|
||--5--------|-(5)-------x-x-|-8--------|-8----7----|
||o-5--------|-(5)-------x-x-|-6--------|-8----8----|
||--3--------|-(3)-----------|----------|-6----5----|


  Gm                         Eb         Bb     F/A
                       PM|
|----------|---------------|----------|------------||
|----------|---------------|----------|-----------o||
|----------|-----------x-x-|-8--------|------------||
|-5--------|-(5)-------x-x-|-8--------|-8------7---||
|-5--------|-(5)-------x-x-|-6--------|-8------8--o||
|-3--------|-(3)-----------|----------|-6------5---||


   Verse
    Cm                       Eb
       PM|      PM|      PM     PM|      PM|      PM
||-------------------------|------------------------|
||o------------------------|------------------------|
||-------------------------|------------------------|
||--5--------5--------5----|-8--------8--------8----|
||o-3--3--3--3--3--3--3--3-|-6--6--6--6--6--6--6--6-|
||--3--3--3--3--3--3--3--3-|-6--6--6--6--6--6--6--6-|
|
|   Gtr III
||-------20-22-23----20----|------15-17-18----15----|
||o---20----------20----20-|---16----------16----16-|
||-------------------------|------------------------|
||-------------------------|------------------------|
||o------------------------|------------------------|
||-------------------------|------------------------|


  F                         Gm
      PM|      PM|      PM      PM|      PM|      PM
|-------------------------|--------------------------||
|-------------------------|-------------------------o||
|-------------------------|--------------------------||
|-10-------10-------10----|-12-------12-------12-----||
|--8--8--8--8--8--8--8--8-|-10-10-10-10-10-10-10-10-o||
|--8--8--8--8--8--8--8--8-|-10-10-10-10-10-10-10-10--||
|
|-------13-15-17----13----|-------15-17-18----15-----||
|----13----------13----13-|----15----------------15-o||
|-------------------------|--------------------------||
|-------------------------|--------------------------||
|-------------------------|-------------------------o||
|-------------------------|--------------------------||


   Cm                       Eb
||------------------------|------------------------|
||------------------------|------------------------|
||------------------------|------------------------|
||-5----------------------|-8----------------------|
||-3----------------------|-6----------------------|
||-3----------------------|-6----------------------|
|
||------20-22-23----20----|------15-17-18----15----|
||---20-20-22-23-20-20-20-|---16-15-17-18-16-16-16-|
||---20----------20----20-|---17----------17----17-|
||------------------------|------------------------|
||------------------------|------------------------|
||------------------------|------------------------|


  F                         Gm
|-------------------------|-----------------------|
|-------------------------|-----------------------|
|-------------------------|-----------------------|
|-10----------------------|-12--------------------|
|--8----------------------|-10--------------------|
|--8----------------------|-10--------------------|
|
|-------13-15-17----13----|-------15-17-18--15----|
|----13-13-15-17-13-13-13-|----15-15-17-18--15-15-|
|----14----------14----14-|----15--------------15-|
|-------------------------|-----------------------|
|-------------------------|-----------------------|
|-------------------------|-----------------------|


  Cm                       Eb
|------------------------|------------------------|
|------------------------|------------------------|
|------------------------|------------------------|
|-5----------------------|-8----------------------|
|-3----------------------|-6----------------------|
|-3----------------------|-6----------------------|
|
|------20-22-23----20----|------15-17-18----15----|
|---20-20-22-23-20-20-20-|---16-15-17-18-16-16-16-|
|---20----------20----20-|---17----------17----17-|
|------------------------|------------------------|
|------------------------|------------------------|
|------------------------|------------------------|


  F
|---------------------|----------------------|
|---------------------|----------------------|
|---------------------|----------------------|
|-10------------------|-10-------------------|
|--8------------------|--8-------------------|
|--8------------------|--8-------------------|
|
|-------13-15-22--18--|-------13-15-22--20---|
|----13-13-15-22--18--|----13-13-15-22--20---|
|----14---------------|----14----------------|
|---------------------|----------------------|
|---------------------|----------------------|
|---------------------|----------------------|


 Bridge
  Gm    F/A    Bb   C       Gm   F/A    Bb   C
|------------|------------|-----------|------------|
|------------|------------|-----------|------------|
|------------|------------|-----------|------------|
|--5----7----|-8----10----|-5----7----|-8----10----|
|--5----8----|-8----10----|-5----8----|-8----10----|
|--3----5----|-6-----8----|-3----5----|-6-----8----|
|
|-18---------|------------|-----------|------------|
|-18---------|------------|-----------|------------|
|------------|------------|-----------|------------|
|------------|------------|-----------|------------|
|------------|------------|-----------|------------|
|------------|------------|-----------|------------|


  Gm   F/A    Bb   C       Gm   F/A    Bb   C
|-----------|------------|-----------|------------|
|-----------|------------|-----------|------------|
|-----------|------------|-----------|------------|
|-5----7----|-8----10----|-5----7----|-8----10----|
|-5----8----|-8----10----|-5----8----|-8----10----|
|-3----5----|-6-----8----|-3----5----|-6-----8----|


   Chorus
    Gm                         Eb         Bb   F/A
                         PM|
||-----------|---------------|----------|-----------|
||o----------|---------------|----------|-----------|
||-----------|-----------x-x-|-8--------|-----------|
||--5--------|-(5)-------x-x-|-8--------|-8----7----|
||o-5--------|-(5)-------x-x-|-6--------|-8----8----|
||--3--------|-(3)-----------|----------|-6----5----|


  Gm                         Eb         Bb     F/A
                       PM|
|----------|---------------|----------|------------||
|----------|---------------|----------|-----------o||
|----------|-----------x-x-|-8--------|------------||
|-5--------|-(5)-------x-x-|-8--------|-8------7---||
|-5--------|-(5)-------x-x-|-6--------|-8------8--o||
|-3--------|-(3)-----------|----------|-6------5---||


  Breakdown
   Cm               F          Eb
   PM----|          PM----|    PM----|
||----------------|-----------------------|
||----------------|-----------------------|
||---------5------|-----------------------|
||---------5------|---------3----------8--|
||-3-3-3-3-3------|---------3----------6--|
||----------------|-1-1-1-1-1--6-6-6-6-6--|


  Gm               Bb
  PM----|          PM----|    PM----|
|----------------|--------------------|
|----------------|--------------------|
|----------------|--------------------|
|---------5------|---------8--8-7-----|
|---------5------|---------8--8-7-8-5-|
|-3-3-3-3-3------|-6-6-6-6-6--6-5-8-5-|


  Cm               F          Eb           Bb               Cm
  PM----|          PM----|    PM----|      PM----|          PM----|     PM--|
|----------------|-----------------------|----------------|--------------------|
|----------------|-----------------------|----------------|--------------------|
|---------5------|-----------------------|----------------|-------------5-3-2--|
|---------5------|---------3----------8--|---------5------|---------8---5-3-2--|
|-3-3-3-3-3------|---------3----------6--|---------5------|---------8---3-1-0--|
|----------------|-1-1-1-1-1--6-6-6-6-6--|-3-3-3-3-3------|-6-6-6-6-6----------|


              Key & Gt Solo Section
  Gm           Gm
|-----------||-----------------------------------------------|--------------------------------------------|
|-----------||-----------------------------------------------|--------------------------------------------|
|-----------||-----------------------------------------------|--------------------------------------------|
|-5---5---5-||-----------------------------------------------|--------------------------------------------|
|-5---5---5-||-----------------------------------------------|--------------------------------------------|
|-3---3---3-||-----------------------------------------------|--------------------------------------------|
|
|           Gtr IV
|-----------||-----------------------------------------------|------------------------15-13-11------------|
|-----------||16---------------------------------------------|---------------------------------15-13-11---|
|-----------||------------19----------17----------19-------15|15-14-12----12-14-15-12-------------------14|
|-----------||---17-17-17----17-17-17----17-17-17----17-17---|---------15---------------------------------|
|-----------||-----------------------------------------------|--------------------------------------------|
|-----------||-----------------------------------------------|--------------------------------------------|

[ Tab from: http://www.guitartabs.cc/tabs/s/sonata_arctica/victorias_secret_tab.html ]
                                                                          G
|-------------------------------------------------|-------------------------------------------------|
|-------------------------------------------------|-------------------------------------------------|
|-------------------------------------------------|-------------------------------------------------|
|-------------------------------------------------|-------------------------------------------------|
|-------------------------------------------------|-------------------------------------------------|
|-------------------------------------------------|-------------------------------------------------|
|
|-------------------------------------------------|-----------------------------------15-13-11------|
|-16----------------------------------------------|-----------------------------11-13----------15---|
|-------------19----------17----------19-------15-|--15-14-12----12-14-15-12-14---------------------|
|----17-17-17----17-17-17----17-17-17----17-17----|-----------15------------------------------------|
|-------------------------------------------------|-------------------------------------------------|
|-------------------------------------------------|-------------------------------------------------|


  Cm                                                Ab
  Gtr IV
|-15----------------------------------------------|-----------------------------------------------|
|-------------18----------16----------18-------18-|-----------------------------------------------|
|----17-17-17----17-17-17----17-17-17----17-17----|-----------20----19----17----19----20-19-17-20-|
|-------------------------------------------------|--18-18-18----18----18----18----18-------------|
|-------------------------------------------------|-----------------------------------------------|
|-------------------------------------------------|-----------------------------------------------|


  Gm                                              F
|-----------------------------------------------|-----------------------------------------------|
|-----------------------------------------------|-----------------------------------------------|
|-----------19----17----15----17----19-17-15-19-|-----------17----15----14----15----17-15-14-17-|
|--17-17-17----17----17----17----17-------------|--15-15-15----15----15----15----15-------------|
|-----------------------------------------------|-----------------------------------------------|
|-----------------------------------------------|-----------------------------------------------|


  Gm
  Gtr V
|-------------------------------------------------|-----------------------------------------------|
|-13----------------------------------------------|--15-13-11----11-13-15-11-16-15-13-------------|
|-------------15----------14----------15-------12-|-----------14----------------------15-14-12-11-|
|----12-12-12----12-12-12----12-12-12----12-12----|-----------------------------------------------|
|-------------------------------------------------|-----------------------------------------------|
|-------------------------------------------------|-----------------------------------------------|
|
| Gtr IV
|-------------------------------------------------|--------------------------15-13-11-------------|
|-16----------------------------------------------|-----------------------------------15-13-11----|
|-------------19----------17----------19-------15-|--15-14-12----12-14-15-12-------------------14-|
|----17-17-17----17-17-17----17-17-17----17-17----|-----------15----------------------------------|
|-------------------------------------------------|-----------------------------------------------|
|-------------------------------------------------|-----------------------------------------------|


                                                                          G
|-------------------------------------------------|--------------------------------15-------------|
|-13----------------------------------------------|--15-13-11----11-13-15-12-13-15----12----------|
|-------------15----------14----------15-------12-|-----------14-------------------------13-12-10-|
|----12-12-12----12-12-12----12-12-12----12-12----|-----------------------------------------------|
|-------------------------------------------------|-----------------------------------------------|
|-------------------------------------------------|-----------------------------------------------|
|
|-------------------------------------------------|-----------------------------------15-13-11----|
|-16----------------------------------------------|-----------------------------11-13----------15-|
|-------------19----------17----------19-------15-|--15-14-12----12-14-15-12-14-------------------|
|----17-17-17----17-17-17----17-17-17----17-17----|-----------15----------------------------------|
|-------------------------------------------------|-----------------------------------------------|
|-------------------------------------------------|-----------------------------------------------|


  Cm                                                Ab
|-------------------------------------------------|-----------------------------------------------|
|-16----------15----------13----------15-------15-|-----------------------------------------------|
|----12-12-12----12-12-12----12-12-12----12-12----|-----------17----15----13----15----17-15-13-17-|
|-------------------------------------------------|--13-13-13----13----13----13----13-------------|
|-------------------------------------------------|-----------------------------------------------|
|-------------------------------------------------|-----------------------------------------------|
|
|-15----------------------------------------------|-----------------------------------------------|
|-------------18----------16----------18-------18-|-----------------------------------------------|
|----17-17-17----17-17-17----17-17-17----17-17----|-----------20----19----17----19----20-19-17-20-|
|-------------------------------------------------|--18-18-18----18----18----18----18-------------|
|-------------------------------------------------|-----------------------------------------------|
|-------------------------------------------------|-----------------------------------------------|


  Gm                                              F
|-----------------------------------------------|-----------------------------------------------|
|-----------------------------------------------|-----------------------------------------------|
|-----------15----14----12----14----15-14-12-15-|-----------14----12----10----12----14-12-10-14-|
|--12-12-12----12----12----12----12-------------|--10-10-10----10----10----10----10-------------|
|-----------------------------------------------|-----------------------------------------------|
|-----------------------------------------------|-----------------------------------------------|
|
|-----------------------------------------------|-----------------------------------------------|
|-----------------------------------------------|-----------------------------------------------|
|-----------19----17----15----17----19-17-15-19-|-----------17----15----14----15----17-15-14-17-|
|--17-17-17----17----17----17----17-------------|--15-15-15----15----15----15----15-------------|
|-----------------------------------------------|-----------------------------------------------|
|-----------------------------------------------|-----------------------------------------------|


                            Keyboard Solo
 N.C.                        Fm                    Ab
                             Gtr I
|-------------------------||---------------------|------------------------------------------------|
|-------------------------||---------------------|------------------------------------------------|
|-------------------------||---------------------|------------------------------------------------|
|-------------------------||--3------------------|---6--------------------------------------------|
|-------------------------||--3------------------|---6--------------------------------------------|
|-------------------------||--1------------------|---4--------------------------------------------|
|
|                             ~~~~~~~~~~
|----------------------13-||-15----(15)-13----18-|-(18)--18-------------------------------------16|
|----------------13-15----||---------------16----|-----------18-20-(20)-18-20-18-16----16-18-20---|
|-------12-13-15----------||---------------------|----------------------------------19------------|
|-13-15-------------------||---------------------|------------------------------------------------|
|-------------------------||---------------------|------------------------------------------------|
|-------------------------||---------------------|------------------------------------------------|


  Bb
|----------------------------------------------------------------------------|
|----------------------------------------------------------------------------|
|----------------------------------------------------------------------------|
|--8-------------------------------------------------------------------------|
|--8-------------------------------------------------------------------------|
|--6-------------------------------------------------------------------------|
|
|-18-20-23-20-18-16-18-20-22-20-18-16----------16-16----------16-18-20-22----|
|-------------------------------------20-18-20-------16-18-20----------------|
|----------------------------------------------------------------------------|
|----------------------------------------------------------------------------|
|----------------------------------------------------------------------------|
|----------------------------------------------------------------------------|


  Cm                                       Fm
|----------------------------------------|-----------------------------------------|
|----------------------------------------|-----------------------------------------|
|----------------------------------------|-----------------------------------------|
|----10----------------------------------|--3--------------------------------------|
|----10----------------------------------|--3--------------------------------------|
|-----8----------------------------------|--1--------------------------------------|
|
|                                           ~~
|-22-23-22-20----------------------------|-----------------------------------------|
|-------------23-22-20-------------------|-----------------------------------------|
|----------------------20-22-20-19-------|-----------------------------------------|
|----------------------------------22-20-|-----20-18-------------------------------|
|----------------------------------------|-22--------22-20-20-------------------18-|
|----------------------------------------|--------------------22-20-18-20-22-22----|


  Ab                                              Bb
|-----------------------------------------------|----------------------------------------------|
|-----------------------------------------------|----------------------------------------------|
|-----------------------------------------------|----------------------------------------------|
|-6---------------------------------------------|-8--------------------------------------------|
|-6---------------------------------------------|-8--------------------------------------------|
|-4---------------------------------------------|-6--------------------------------------------|
|
|---------------------15-18-25-25-23-22---------|---------20-22-23-22-20-----------------------|
|---------------18-18-------------------25-23-25|20-22-23----------------23-22-20--------------|
|---------17-19---------------------------------|---------------------------------22-20-19-----|
|---20-20---------------------------------------|------------------------------------------22\-|
|20---------------------------------------------|----------------------------------------------|
|-----------------------------------------------|----------------------------------------------|


  Guitar Solo
   Cm                                  Eb
   Gtr V
                                                                   ~
||-----------------------------------|--------------------------------|
||-11-11b13----11-11b13==(11)r(11)-8-|-10-10b11--(10)p8---------------|
||-----------------------------------|------------------11p10p8----8--|
||-----------------------------------|--------------------------10----|
||-----------------------------------|--------------------------------|
||-----------------------------------|--------------------------------|
|
|  Gtr I
||-----------------------------------|--------------------------------|
||-----------------------------------|--------------------------------|
||-----------------------------------|--8-----------------------------|
||----10-----------------------------|--8-----------------------------|
||----10-----------------------------|--6-----------------------------|
||-----8-----------------------------|--------------------------------|


  F
|------------------------------------8--|
|---------------8-11-9S10----------8----|
|-----5-----5-8-----------10------------|
|-5h8---6h7------------------12-13------|
|---------------------------------------|
|---------------------------------------|
|
|---------------------------------------|
|---------------------------------------|
|---------------------------------------|
|-3-------------------------------------|
|-3-------------------------------------|
|-1-------------------------------------|


  Gm
   ~~
|-10--11p10p8-------------------------------------|
|-------------11p10p8-----------------------------|
|---------------------10p8p7----------------------|
|----------------------------10p8p7---------------|
|-----------------------------------10p8p6--------|
|------------------------------------------10p8p6-|
|
|-------------------------------------------------|
|-------------------------------------------------|
|-------------------------------------------------|
|--5----------------------------------------------|
|--5----------------------------------------------|
|--3----------------------------------------------|


  Cm                             Eb
                                                       ~
|------------------------------|----------------------------|
|---------------------------15-|-15-15b16-(15)r(15)-13S8----|
|----------------12------------|----------------------------|
|-----10-(10)-------13-(13)----|----------------------------|
|-------------10---------------|----------------------------|
|-6S8--------------------------|----------------------------|
|
|------------------------------|----------------------------|
|------------------------------|----------------------------|
|---5--------------------------|-----8----------------------|
|---5--------------------------|-----8----------------------|
|---3--------------------------|-----6----------------------|
|------------------------------|----------------------------|


  F
|-13p10h11h13p11p10---------------------------------------------------|
|-------------------13p10h11h13p11p10---------------------------------|
|-------------------------------------12p8h10h12p10p8-----------------|
|-----------------------------------------------------12p8h10h12p10p8-|
|---------------------------------------------------------------------|
|---------------------------------------------------------------------|
|
|---------------------------------------------------------------------|
|---------------------------------------------------------------------|
|---------------------------------------------------------------------|
|--3------------------------------------------------------------------|
|--3------------------------------------------------------------------|
|--1------------------------------------------------------------------|


|-----------------------------------------------------------|
|-----------------------------------------------------------|
|-10p=7h8h10p8p7--------------------------------------------|
|----------------10p7h8h10p8p7------------------------------|
|------------------------------10p6h8h10p8p6----------------|
|--------------------------------------------10p6h8h10p8p6--|
|
|-----------------------------------------------------------|
|-----------------------------------------------------------|
|-----------------------------------------------------------|
|-(3)-------------------------------------------------------|
|-(3)-------------------------------------------------------|
|-(1)-------------------------------------------------------|


   Chorus
    Gm                         Eb         Bb   F/A
    Gtr I
                         PM|
||-----------|---------------|----------|-----------|
||o----------|---------------|----------|-----------|
||-----------|-----------x-x-|-8--------|-----------|
||--5--------|-(5)-------x-x-|-8--------|-8----7----|
||o-5--------|-(5)-------x-x-|-6--------|-8----8----|
||--3--------|-(3)-----------|----------|-6----5----|


  Gm                         Eb         Bb     F/A
                       PM|
|----------|---------------|----------|------------||
|----------|---------------|----------|-----------o||
|----------|-----------x-x-|-8--------|------------||
|-5--------|-(5)-------x-x-|-8--------|-8------7---||
|-5--------|-(5)-------x-x-|-6--------|-8------8--o||
|-3--------|-(3)-----------|----------|-6------5---||


  Chorus 2
   Cm                      Ab         Eb   Bb/D
||----------|------------|----------|-----------|
||----------|------------|----------|-----------|
||-5--------|-(5)--------|----------|-8----7----|
||-5--------|-(5)--------|-6--------|-8----8----|
||-3--------|-(3)--------|-6--------|-6----5----|
||----------|------------|-4--------|-----------|


  Cm                      Ab         Eb     Bb/D
|----------|------------|----------|------------|
|----------|------------|----------|------------|
|-5--------|-(5)--------|----------|-8------7---|
|-5--------|-(5)--------|-6--------|-8------8---|
|-3--------|-(3)--------|-6--------|-6------5---|
|----------|------------|-4--------|------------|


    Cm                      Ab         Eb   Bb/D     Cm
||-----------|------------|----------|------------||-----------*|
||o----------|------------|----------|-----------o||-----------*|
||--5--------|-(5)--------|----------|-8----7-----||-5\--------*|
||--5--------|-(5)--------|-6--------|-8----8-----||-5\--------*|
||o-3--------|-(3)--------|-6--------|-6----5----o||-3\--------*|
||-----------|------------|-4--------|------------||-----------*|


Tablature Legend
----------------
 h   - hammer-on
 p   - pull-off
 b   - bend
 pb  - pre-bend
 r   - bend release (if no number after the r, then release immediately)
 /\  - slide into or out of (from/to "nowhere")
 s   - legato slide
 S   - shift slide
  - natural harmonic
[n]  - artificial harmonic
n(n) - tapped harmonic
 ~   - vibrato
 tr  - trill
 T   - tap
 TP  - trem. picking
 PM  - palm muting
\n/  - tremolo bar dip; n = amount to dip
 \n  - tremolo bar down
 n/  - tremolo bar up
/n\  - tremolo bar inverted dip
 =   - hold bend; also acts as connecting device for hammers/pulls
 <>  - volume swell (louder/softer)
 x   - on rhythm slash represents muted slash
 o   - on rhythm slash represents single note slash

Misc Legend
-----------
 |  - bar
||  - double bar
||o - repeat start
o|| - repeat end
*|  - double bar (ending)
 :  - bar (freetime)
 $  - Segno
 &  - Coda
Tempo markers -  = BPM(8/16=s8/s16), where s8 = swing 8ths, s16 = swing 16ths


***************************************************************************************
* Generated using Power Tab Editor by Brad Larsen - http://powertab.guitarnetwork.org *
***************************************************************************************
Comments