Sonata Arctica - Respect The Wilderness Chords & Tabs

 

Respect The Wilderness Chords & Tabs

Sonata Arctica Chords & Tabs

Version: 2 Type: Tab 0 ratings
1 star 2 stars 3 stars 4 stars 5 stars
comments

Respect The Wilderness Tab

   
**********************************************************************
* SONATA ARCTICA - RESPECT THE WILDERNESS (From the ALBUM: SILENCE+) *
**********************************************************************
 Music and Words By: Sonata Arctica/T.Kakko

Transcribed By: Niclas Buss
Day tabbed: 26.12.2001
Homepage: http://www.metalprovider.com/thedarktower
email: thetabber@yahoo.se

Please mail me if you can find mistakes!

-------------------------------------------
"This is the bonustrack from the Japanese
 Version of SILENCE"
-------------------------------------------

 Tune down 1/2 step!

  Intro
E-----------------------------------------------------------------------------------|
B-----------------------------------------------------------------------------------|
G-----------------------------------------------------------------------------------|
D---2~-------2~------2-------------------------------------------------2------------|
A---2~-------2~------2-------------------------------------------------2------------|
E---0~-------0~------0--0-0-0--0--0-0-0--0--0-0-0--0-0-0--0--0--0-0-0--0--0-0-0--0--|
                       pm............................................|   pm.........

                               end Intro    Verse 1
E----------------------------------------||-----------------------------------------|
B----------------------------------------||-----------------------------------------|
G----------------------------------------||-----------------------------------------|
D----------------------------------------||-----------------------------------------|
A--------------------------------------/-||---5h7-----------------------5---5h7-5h7-|
E-0-0-0--0--0-0-0--0-0-0--0--0--0-0-0----||-------0-0-0-0-0-0-0-0-3h5h7---7---------|
 ....................................|           pm..............|

E-----------------------------------------------------------------------------------|
B-----------------------------------------------------------------------------------|
G-----------------------------------------------------------------------------------|
D---------------------------------5----5--\--4--------------------------------------|
A-----------------------5---5h7---5----5--\--5----5h7-----------------------5---5h7-|
E-0-0-0-0-0-0-0-0-3h5h7---7-------3----3--\--2--------0-0-0-0-0-0-0-0-3h5h7---7-----|
 pm..............|                                   pm..............|

                                                       Bridge (1)
E-----------------------------------------------------------------------------------|
B----------------------------------------------------|------------------------------|
G----------------------------------------------------|---5--------------------------|
D-------------------------------------5------5-------|---5-----------------5-----4--|
A-5h7-----------------------5---5h7---5------5---x/--|---3-3-3-3-3-3-3-3-3-3-3-3-3-3|
E-----0-0-0-0-0-0-0-0-3h5h7---7-------3------3---x/---------------------------------|
     pm..............|                                    pm..............| pm..| pm

E-----------------------------------------------------------------------------------|
B-----------------------------------------------------------------------------------|
G-5-\-4------------------2----------------------------------------------------------|
D-5-\-5------------------2-------------------------------------------------/7-------|
A-3-\-2-2-2-2-2-2-2-2-2--0-0-0-0-0-0-0-0-0-0-0-0-0-0-0-0-0-0-0-0-0-0-0-0-0----0-0-0-|
E-----------------------------------------------------------------------------------|
       pm..............|  pm..............................................|  pm.....

E-----------------------------------------------------------------------------------|
B-----------------------------------------------------------------------------------|
G----------/--5---------------------------------------------------------------------|
D----------/--5-----------------5-----4---5-----------------/-4---------------7-----|
A-0-0-0-0--/--3-3-3-3-3-3-3-3-3-3-3-3-3-3-3-3-3-3-3-3-3-3-3-/-5-5-5-5-5-5-5-5---5-5-|
E-----------------------------------------------------------------------------------|
 ........|     pm..............| pm..| pm  pm..............|   pm............| pm...

                                                       Verse 2
E-----------------------------------------------------------------------------------|
B----------------------------------------------------|------------------------------|
G----------------------------------------------------|------------------------------|
D-------------5-------------------4------------------|--2---------------------------|
A-5-5-5-5-5-5---5-5-5-5-5-5-5-5-5-5-5-5-5-5-5-5-5-5--|--2------------------------5--|
E-------------------------------------------------------0--0-0-0-0-0-0-0-0-3h5h7---7|
 ............| pm................| pm..............|      pm..............|

E-----------------------------------------------------------------------------------|
B-----------------------------------------------------------------------------------|
G-----------------------------------------------------------------------------------|
D----------------------------------------5-----5--\--4------------------------------|
A-5h7-5h7-----------------------5---5h7--5-----5--\--5----5h7-----------------------|
E---------0-0-0-0-0-0-0-0-3h5h7---7------3-----3--\--2--------0-0-0-0-0-0-0-0-3h5h7-|
         pm..............|                                   pm..............|

                                                               Bridge (2)
E-----------------------------------------------------------------------------------|
B------------------------------------------------------------|----------------------|
G------------------------------------------------------------|---5------------------|
D---------------------------------------------5----5---------|---5-----------------5|
A-5---5h7-5h7-----------------------5---5h7---5----5---x-/---|---3-3-3-3-3-3-3-3-3-3|
E---7---------0-0-0-0-0-0-0-0-3h5h7---7-------3----3---x-/--------------------------|
             pm..............|                                    pm..............|

E-----------------------------------------------------------------------------------|
B-----------------------------------------------------------------------------------|
G---------5-\-4------------------2--------------------------------------------------|
D-----4---5-\-5------------------2---------------------------------7----------------|
A-3-3-3-3-3-\-2-2-2-2-2-2-2-2-2--0-0-0-0-0-0-0-0-0-0-0-0-0-0-0-0-0---0-0-0-0-0-0-0-0|
E-----------------------------------------------------------------------------------|
 pm..| pm      pm..............|  pm..............................| pm..............|

E-----------------------------------------------------------------------------------|
B-----------------------------------------------------------------------------------|
G--------------------/-5------------------------------------------------------------|
D-7------------------/-5-----------------5-----4---5-----------------/-4------------|
A---0-0-0-0-0-0-0-0--/-3-3-3-3-3-3-3-3-3-3-3-3-3-3-3-3-3-3-3-3-3-3-3-/-5-5-5-5-5-5-5|
E-----------------------------------------------------------------------------------|
   pm..............|    pm..............| pm..| pm  pm..............|   pm..........

                                                               Chorus (1)
E-----------------------------------------------------------------------------------|
B------------------------------------------------------------|----------------------|
G------------------------------------------------------------|---5-----7-----------5|
D-----7-----------------5-----------------4h5p4--------------|---5-----7-----5-----5|
A-5-5---5-5-5-5-5-5-5-5---5-5-5-5-5-5-5-5-------7-5-3--------|---3-----5-----5-----3|
E-----------------------------------------------------7-5-3------------------3------|
 ....| pm..............| pm..............|     pm..........|

E--------------------------------------------------------------------------<12>~----|
B---------------------------------------------------------------|----------------<12|
G----5-----7-----4-----------5-----7-----------5-----2-----4----|-------------------|
D----5-----7-----4-----------5-----7-----5-----5-----2-----4----|---2~--------------|
A----3-----5-----2-----2~~---3-----5-----5-----3-----0-----2----|---2~--------------|
E----------------------------------------3--------------------------0~--------------|

            T.Bar.............|
E------------\\//--\\//--\\//-------------------------------------------------------|
B>~~---------\\//--\\//--\\//-------------------------------------------------------|
G----<12>~~--\\//--\\//--\\//-------------------------------------------------------|
D--------------------------------2-------------------------------------------------2|
A--------------------------------2-------------------------------------------------2|
E--------------------------------0--0-0-0--0--0-0-0--0--0-0-0--0-0-0--0--0--0-0-0--0|
                                   pm............................................|

                                                    Guitar Solo
E----------------------------------------------------/13-15-13----------------------|
B-------------------------------------------------|------------15-13-15-13----------|
G-------------------------------------------------|------------------------14-12-14-|
D-------------------------------------------------|---------------------------------|
A-------------------------------------------------|---------------------------------|
E--0-0-0--0--0-0-0--0--0-0-0--0-0-0--0--0--0-0-0------------------------------------|
  pm............................................|

E---------------------------------------------------------------------------------12|
B------------------------------------------------------13----------------13-14-15---|
G-12------------------------------------------10-12-14----14~---12-13-14------------|
D----14-12-10/12~--------------------10-12-14---------------------------------------|
A---------------------------10-12-13------------------------------------------------|
E------------------10-12-13---------------------------------------------------------|
[ Tab from: http://www.guitartabs.cc/tabs/s/sonata_arctica/respect_the_wilderness_tab_ver_2.html ]
E-13-12---------------------------------------------------------/-13-12-11-10-------|
B-------15-14-13--------------------------------------------------------------14-13-|
G----------------14-12-10-14-12-10----12-10-------10--------------------------------|
D----------------------------------14-------14-12----14-10-12~----------------------|
A-----------------------------------------------------------------------------------|
E-----------------------------------------------------------------------------------|

E-----------------------------------------------------------------------------------|
B12-11----------------11-12-13-14-13-12-11------------------------------------------|
G------14-13-12-13-14----------------------14-13-12-11----------------------11-12-13|
D------------------------------------------------------15-14-13-12-13-14-15---------|
A-----------------------------------------------------------------------------------|
E-----------------------------------------------------------------------------------|

E-----------------------------------------------------------------------------------|
B-------------------------------------------------------------------------/-15-17-18|
G-14-13-12-11----------------------------------------------11-12-13-14~~------------|
D-------------15-14-13-12----------------------12-13-14-15--------------------------|
A-------------------------16-15-14-13-14-15-16--------------------------------------|
E-----------------------------------------------------------------------------------|

                                        Two Guitars:
E-15-17-15-------18-17-15----17-15--------------------------------------------------|
B----------18-17----------18-------18-15-/-17~----12---13-------12b(13)r12b(13)r12~-|
G----------------------------------------/--9~--------------14----------------------|
D--------------------------------------------------9---10----7---9b(10)r9-b(10)r9~--|
A-----------------------------------------------------------------------------------|
E-----------------------------------------------------------------------------------|

E-----------------------------------------------------------------------------------|
B--------------------------/-17~---12---13------12b(13)r12b(13)r12~-----------------|
G--\-9---/-12----11--------/--9~------------14------------------------\-9----12---11|
D--\-2---/--5-----4---9-------------9---10---7---9b(10)r9-b(10)r9~----\-2-----5----4|
A---------------------2-------------------------------------------------------------|
E-----------------------------------------------------------------------------------|

                                                                Bridge (3)
E--<9>~--\\-------------------------------------------------------------------------|
B--<9>~--\\-\\---------|-----------------|--------|--Verse-3--|---------------------|
G--<9>~--\\-\\-\\------|--Keyboard-Solo--|---5~---|--same-as--|---5-----------------|
D-----------\\-\\-\\---|-----------------|---5~---|--Verse-2--|---5-----------------|
A--------------\\-\\---|-----------------|---3~---|-----------|---3-3-3-3-3-3-3-3-3-|
E-----------------\\----------------------------------------------------------------|
                                                                   pm..............|

E-----------------------------------------------------------------------------------|
B-----------------------------------------------------------------------------------|
G-----------5-\-4------------------2------------------------------------------------|
D-5-----4---5-\-5------------------2-----------------------------------------7---7--|
A-3-3-3-3-3-3-\-2-2-2-2-2-2-2-2-2--0-0-0-0-0-0-0-0-0-0-0-0-0-0-0-0-0-0-0-0-0---0---0|
E-----------------------------------------------------------------------------------|
   pm..| pm     pm...............|  pm......................................| pm  pm

E-----------------------------------------------------------------------------------|
B-----------------------------------------------------------------------------------|
G----------------------/--5---------------------------------------------------------|
D---7------------------/--5-----------------5-----4---5-----------------/-4---------|
A-0---0-0-0-0-0-0-0-0--/--3-3-3-3-3-3-3-3-3-3-3-3-3-3-3-3-3-3-3-3-3-3-3-/-5-5-5-5-5-|
E-----------------------------------------------------------------------------------|
 ..| pm..............|     pm..............| pm..| pm  pm..............|   pm.......

                                                                   Chorus (2)
E-----------------------------------------------------------------------------------|
B----------------------------------------------------------------|------------------|
G----------------------------------------------------------------|---5-----7--------|
D---------7-----------------5-----------------4h5p4--------------|---5-----7-----5--|
A-5-5-5-5---5-5-5-5-5-5-5-5---5-5-5-5-5-5-5-5-------7-5-3--------|---3-----5-----5--|
E---------------------------------------------------------7-5-3------------------3--|
 ........| pm..............| pm...............|    pm..........|

E-----------------------------------------------------------------------------------|
B------------------------------------------------------------------------|----------|
G----5-----5-----7-----4----------5-----7-----------5-----2-----5--/--7--|--Chorus--|
D----5-----5-----7-----4----------5-----7-----5-----5-----2-----5--/--7--|----(1)---|
A----3-----3-----5-----2---/-2~---3-----5-----5-----3-----0-----3--/--5--|----------|
E---------------------------------------------3-------------------------------------|

E-----------------------------------------------------------------------------||
B-----------------------------------------------------------------------------||
G-----------------------------------------------------------------------------|| end
D--2~------------2~----------2~------------2~---------------------------------||
A--2~------------2~----------2~------------2~--2\-----------------------------||
E--0~--0--0--0---0~--0-0-0\--0~--0--0--0---0~--0\--0-0-0-0--0-0-0-0-0-0-0\----||
      pm......|     pm.....|    pm......|         pm......................|

-----------------------------------------------------------------------------------------

  Rhythm Guitar during Guitar Solo
E-----------------------------------------------------------------------------------|
B-----------------------------------------------------------------------------------|
G*---7--------------------------\-5-5---7--------------------------\-5-5---7--------|
D*---7--------------------------\-5-5---7--------------------------\-5-5---7--------|
A----5-5-5-5-5-5-5-5-5-5-5-5-5--\-3-3---5-5-5-5-5-5-5-5-5-5-5-5-5--\-3-3---5-5-5-5-5|
E-----------------------------------------------------------------------------------|
      pm......................|          pm......................|          pm......

                                         x2
E-----------------------------------------------------------------------------------|
B-------------------------------------------|---------------------------------------|
G------------------\-5-5----------3----5---*|*--------------------------------------|
D------------------\-5-5----5-----3----5---*|*---4h5--------4h5-4h5-4h5-4h-5--------|
A-5-5-5-5-5-5-5-5--\-3-3----5-----1----3----|---------------------------------------|
E---------------------------3-------------------------0-0-0-------------------0-0-0-|
 ................|                                   pm....|                 pm....|
                                             _____________________________ _________
                                            |1.                           |2.
E-------------------------------------------|-----------------------------|---------|
B-------------------------------------------|-----------------------------|---------|
G---------7~--------------------------------|----------------------------*|---------|
D-4h5-----7~---4h5---------4h5-4h5-4h5-4h-5-|----4p5-4p5-4p5-4p5-\2--0~--*|-4h5-4~-4|
A---------5~--------------------------------|-----------------------------|---------|
E------0------------0-0-0-------------------|--0--------------------------|---------|
      pm           pm....|                    pm
 _____________________
                      |
E---------------------||
B---------------------||
G----------7\--7--7---|| end
D~-4h5p4~--7\--7--7---||
A----------5\--5--5---||
E---------------------||

  Rhythm Guitar during Keyboard Solo
E-----------------------------------------------------------------------------------|
B-----------------------------------------------------------------------------------|
G*---5--------------------------\-3-3---5--------------------------\-3-3---5--------|
D*---5--------------------------\-3-3---5--------------------------\-3-3---5--------|
A----3-3-3-3-3-3-3-3-3-3-3-3-3--\-1-1---3-3-3-3-3-3-3-3-3-3-3-3-3--\-1-1---3-3-3-3-3|
E-----------------------------------------------------------------------------------|
      pm......................|          pm......................|          pm......

                                         x2
E-----------------------------------------------------------------------------------|
B-------------------------------------------|---------------------------------------|
G------------------\-3-3---------------3---*|*--------------------------------------|
D------------------\-3-3----3-----6----3---*|*---2h3--------2h3-2h3-2h3-2h-3--------|
A-3-3-3-3-3-3-3-3--\-1-1----3-----6----1----|---------5-5-5-------------------5-5-5-|
E---------------------------1-----4-------------------------------------------------|
 ................|                                   pm....|                 pm....|
                                             _____________________________ _________
                                            |1.                           |2.
E-------------------------------------------|-----------------------------|---------|
B-------------------------------------------|-----------------------------|---------|
G---------5~--------------------------------|----------------------------*|---------|
D-2h3-----5~---2h3---------2h3-2h3-2h3-2h-3-|----2p3-2p3-2p3-2p3---------*|-2h3-2~-2|
A------5--3~--------5-5-5-------------------|--5-----------------\5--3~---|---------|
E-------------------------------------------|-----------------------------|---------|
      pm           pm....|                    pm
 __________
           |
E----------||
B----------||
G----------|| end
D~-2h3p2~--||
A----------||
E----------||

-----------------------------------------------------------------------------------------

=======================
=TABLATURE EXPLANATION=
=======================

A.H. = Artificial Harmonic

pm..| = Palm mute

h = hammer on

p = pull off

/ = slide up

\ = slide down

~ = Vibrato

b() = Bend

x\ = Pick Slide

--------
--------
---12--- = Tremolo pick
----/---
----/---
----/---

---.---
--12--- = Staccato
-------
-------
-------

|     |
|     |
|*   *| = repeat from * to *
|*   *| 
|     |
Comments