Sonata Arctica - Draw Me Chords & Tabs

 

Draw Me Chords & Tabs

Sonata Arctica Chords & Tabs

Version: 2 Type: Tab 0 ratings
1 star 2 stars 3 stars 4 stars 5 stars
comments

Draw Me Tab

   
DRAW ME (sonata arctica)

    Bm                  G               A7
E------------------------------------------------------------------------|
B---2-------20-------------------------0--------------------------------|
G-----------------------2------0----------------2--------0---------------|
D-------4------------------0------0---------2-------2-----------4--------|
A---2-----------------------------------0-------------------0------0-----|
E-----------------------3------------------------------------------------|

      Bm        G                 A7 (sus 4)
E------------------------------------------------0---------------|
B---2------21------------------------0---2-h-3---------3--------|
G---------------2-------0----------2--------- ------0-------0----|
D-------4-----------0------0-------------------------------------|
A---2------------------------------0-----------------------------|
E---------------3------------------------------------------------|
[ Tab from: http://www.guitartabs.cc/tabs/s/sonata_arctica/draw_me_tab_ver_2.html ]
Bm
Blessed witrh an eye to see things as they are,
          D
Will you draw me?
     Bm
Up there on the wall,
         D
Looking down to us all,
          Em
You never saw me...
F#m
I found a pen and I outlined a life.
Em
You've never cried,
I think I saw a tear in your eye.

     Bm
Your eyes tell the tale,
I will not ask again.
      D
Now I see what you've lost,
Nothing is quite the same.
       Bm
By the love of my heart,
        D
Cut my drawing in half,
       Em
For I think I'm like you...
Should you draw me...
A    G  Em      G
Waiting for my evenfall.

(intro)

play this as the firs part:

Farewell, my passion,
You slowly turn pale.
I will long for your warmth,
Made me feel safe.
I will not draw again,
'Til I know it's my time.
I have lived a long life,
Should I draw me...

Morning's here, I must have (stop here 2 times)
failed...


its a good song, and the first I tab, hope you enjoy it, any correction to make send it
here carrositosis@yahoo.com.ar.. greetings from argentina eeevaaaaa jeje!!
Comments