Sonata Arctica - Cage Chords & Tabs

 

Cage Chords & Tabs

Sonata Arctica Chords & Tabs

Version: 1 Type: Tab 0 ratings
1 star 2 stars 3 stars 4 stars 5 stars
comments

Cage Tab

   
TRANSCRIBED: Joni Fred 
mail: ironevil2002@yahoo.com
(SUOMI-FINLAND-PERKELE!!)
check my demo also
http://www.mikseri.net/artistit/?id=43035

Tunning E B G D A E

Chorus riff
			       4x
|-------------|-------------------|
|-------------|-------------------|
|--9--------5-|----------------7--|
|--9--------5-|-5-----------5--7--|
|--7--------3-|-5-----------5--5--|
|-------------|-3-----------3-----|

Verse riff
                            2x
|--------------|--------------|
|--------------|--------------|
|--9-----------|--------------|
|--9-----9--10-|--7-----5-----|
|--7-----9--10-|--7-----5--0--|
|--------7--8--|--5-----3--2--|
							         2x
|-------------------------------------------------------------------|
|-------------------------------------------------------------------|
|--9-----9--9--9~~--------------------------------------------------|
|--9-----9--9--9~~---9-----10------5-----5--5--5~~--5---------------|
|--7-777-7--7--7~~---9-----10------5-----5--5--5~~--5------0--------|
|--------------------7-777-8--888--3-333-3--3--3~~--3-333--2--222---|


pre chorus
								   2x
|--------------------------------------------------------------------|
|--------------------------------------------------------------------|
|-5-----5-----5---5-----5-----5----7-----7-----7---------------------|
|-5-----5-----5---5-----5-----5----7-----7-----7----5-----5-----5----|
|-3-333-3-333-3-3-3-333-3-333-3-3--5-555-5-555-5-5--5-----5-----5----|
|---------------------------------------------------3-333-3-333-3-3--|

ending
                                2x
|---------------------------------|-------------------|
|---------------------------------|-------------------|
|-5-----5-----5---5-----5-----5---|-7-----7-----7-----|
|-5-----5-----5---5-----5-----5---|-7-----7-----7-----|
|-3-333-3-333-3-3-3-333-3-333-3-3-|-5-555-5-555-5-5---|
|-------------------------------- |-------------------|
[ Tab from: http://www.guitartabs.cc/tabs/s/sonata_arctica/cage_tab.html ]
Chorus riff
			        2x
|-------------|-------------------|
|-------------|-------------------|
|--9--------5-|----------------7--|
|--9--------5-|-5-----------5--7--|
|--7--------3-|-5-----------5--5--|
|-------------|-3-----------3-----|


Verse riff  x 2
pre chorus  x 2  
ending
chorus riff x 4

2.23

fill 1

|---------|
|---------|
|---------|
|--2--4-5-|
|--2--4-5-|
|--0--2-3-|


middle part  
                                                        
|------------------------------------------------|
|------------------------------------------------|
|------------------------------------------------|
|-7-----9-----9-----9---7------5-----6-----6-----|
|-7-----9-----9-----9---7------5-----6-----6-----|
|-5-----7-777-7-777-7-7-5------3-333-4-444-4-4---|

|----------------------------------------------------------------|
|----------------------------------------------------------------|
|----------------------------------------------------------------|
|-7-----9-----9-----9---7-----5-----6------7-----8------9--------|
|-7-----9-----9-----9---7-----5-----6------7-----8------9--------|
|-5-----7-777-7-777-7-7-5-----3-333-4-444--5-555-6-666--7--------|


keyboard melody

              2x
|---------------|------------------------------------------------|
|---------------|------------------------------------------------|
|---------------|------There is no guitar during keypoard solo---|
|--9--5--2--4---|------------------------------------------------|
|--9--5--2--4---|------------------------------------------------|
|--7--3--0--2---|------------------------------------------------|


guitar 2 on guitar solo
			       2x
|-------------|-------------------|
|-------------|-------------------|
|--9--------5-|----------------7--|
|--9--------5-|-5-----------5--7--|
|--7--------3-|-5-----------5--5--|
|-------------|-3-----------3-----|


pre chorus  x 2 
ending
chorus riff x 4

chorus riff 2
                                     4x
|------------------|-------------------|
|------------------|-------------------|
|--11----9---7-----|----------------9--|
|--11----9---7-----|-7-----------7--9--|
|--9-----7---5-----|-7-----------7--7--|
|------------------|-5-----------5-----|

end

|------------------|
|------------------|
|------------------|
|-11---------11----|
|-9---9-9-9--9-----|
|------------------|
Comments