Son Of Sam - Satiate Chords & Tabs

 

Satiate Chords & Tabs

Son Of Sam Chords & Tabs

Version: 1 Type: Tab 0 ratings
1 star 2 stars 3 stars 4 stars 5 stars
comments

Satiate Tab

   
Drop D:
Intro:
         (3x)
E:|---------------|-------------------------|
H:|---------------|-------------------------|
G:|---------------|-------------------------|
D:|--1-------ah---|--1--------ah------ah----|
A:|--1--------4---|--1--------44------44----|
D:|--1---7--------|--1----7--------7--------|

Verse:
E:|--------------------------------------------------------------------------|
H:|--------------------------------------------------------------------------|
G:|--------------------------------------------------------------------------|
D:|--1X111X1X111X1X111-------ah----1X111X1X111--------ah------ah-----|
A:|--1X111X1X111X1X111--------4----1X111X1X111--------44------44-----|
D:|--1X111X1X111X1X111----7--------1X111X1X111----7--------7---------|
      (pm)  (pm)  (pm)              (pm)  (pm)
[ Tab from: http://www.guitartabs.cc/tabs/s/son_of_sam/satiate_tab.html ]
Chorus:
E:|--------------------------------------------------------------------------|
H:|--------------------------------------------------------------------------|
G:|--------------------------------------------------------------------------|
D:|--6X666X6X666X6X666----4---7-----6X666X6X666----4---77---4---77---|
A:|--6X666X6X666X6X666----4---7-----6X666X6X666----4---77---4---77---|
D:|--6X666X6X666X6X666----4---7-----6X666X6X666----4---77---4---77---|
      (pm)   (pm) (pm)               (pm)  (pm)

(continued)
------------------------------------------------------------------------------------|
------------------------------------------------------------------------------------|
------------------------------------------------------------------------------------|
--6X666X6X666X6X666----4---7-----6X666X6X666----4---77---4---77---4---77----|
--6X666X6X666X6X666----4---7-----6X666X6X666----4---77---4---77---4---77----|
--6X666X6X666X6X666----4---7-----6X666X6X666----4---77---4---77---4---77----|
   (pm)  (pm)  (pm)               (pm)   (pm)


Solos: Im working 


Sorry, but Im not jet really good on guitar because Im just learning it !
Comments