Son Of Sam - Michael Chords & Tabs

 

Michael Chords & Tabs

Son Of Sam Chords & Tabs

Version: 1 Type: Bass Tab 0 ratings
1 star 2 stars 3 stars 4 stars 5 stars
comments

Michael Bass Tab

------------------------------------------------------------------------------- 
MICHAEL - Son Of Sam 
------------------------------------------------------------------------------- 

By: Nick G 

INTRO/VERSE 
G|--------------------------------------------------------------------------| 
D|------7-77-------5--55----------------------------------------------------| 
A|--5-5-5-----3-3--3--------------------------------------------------------| 
E|--------------------------------------------------------------------------| 

CHORUS 
G|--------------------------------------------------------------------------| 
D|--------------------------------------------------------------------------| 
A|--6---2----0----1---------------------------------------------------------| 
E|--------------------------------------------------------------------------| 
[ Tab from: http://www.guitartabs.cc/tabs/s/son_of_sam/michael_btab.html ]
break down 
G|---------------------------------------------------------------------------| 
D|---------------------------------------------------------------------------| 
A|--5/3/5--5/3/5--------------5/3/5--5/3/5-----------------------------------| 
E|-----------------11111111-----------------33333333-------------------------| 

ending 
G|---------------------------------------------------------------------------| 
D|---------------------------------------------------------------------------| 
A|--5555555555----3333333333---(keep repeating) then-------------------------| 
E|--------------------------------------------------------33---1-------------| 

im pretty sure the tab is 100% right. if it isnt correct,it is pretty damm close 
and you could esily fix it but moving over a fret or hwatere the problem might be. 
e-mail me with any question or comments about the tab at njg86@yahoo.com 

p.s. listen to the song to find out when to play each part,but i think it goes 

intro/verse 
chorus 
verse 
chours 
breakdown 
ending 

===============================================================================
Comments