Son Of Dork - Ticket Outta Loserville Chords & Tabs

 

Ticket Outta Loserville Chords & Tabs

Son Of Dork Chords & Tabs

Version: 1 Type: Tab 0 ratings
1 star 2 stars 3 stars 4 stars 5 stars
comments

Ticket Outta Loserville Tab

Son Of Dork - Ticket Outta Loserville

Tabbed by Matt Barry 05th October 2005

I tabbed this from when they played it on TOTP. I think the studio version is played 1
fret higher so just use a capo on fret 1 if you’re playing along to that.

I think it’s pretty accurate except the bridge might be a bit off a bit.
You can work out the rhythm - its not that hard.

c= Play this chord as long as neccessary
pm....= Palm Mute this chord as long as neccessary

Any suggestions or comments, email me at: matt_barry182@msn.com


  Intro Guitar 1

E|---2-------0-0-0------------------------------|
B|-0-------0-------4-0--------------------------|
G|----------------------------------------------| x4
D|----------------------------------------------|
A|----------------------------------------------|
E|----------------------------------------------|

  Intro Guitar 2+3

E|---------------------------------------------|
B|---------------------------------------------|
G|-4-------9---8---11---9----------------------|
D|-4-------9---8---11---9----------------------|
A|-2c------7c—-6c---9c—-7c---------------------|
E|---------------------------------------------|

  Intro Part 2

E|--------------------------------------------------|
B|--------------------------------------------------|
G|--4--6--8--8/9\8--6----------11--9--8/9\6--4------|
D|--x--x--x--x-x-x--x—(x3)------x--x--x-x-x--x------|
A|--2--4--6--6/7\6--4-----------9--7—-6/7\4--2------|
E|--------------------------------------------------|

.....................................................

  Verse

E|--------------------------------------------------------------|
B|--------------------------------------------------------------|
G|--4-4---------4-4---------------------------------------------|
D|--x-x---------x-x---------2-2---------6-6---------2-2---------|
A|--2-2-pm....--2-2-pm....--2-2---------6-6---------2-2---------|
E|--------------------------0-0-pm....--4-4-pm....--0-0-pm-....-|

E|-------------------------------------------------------------------------|
B|-------------------------------------------------------------------------|
G|--4-4--------------------4-4---------------------------------------------|
D|--x-x--------------------x-x---------2-2---------6-6---------2-2---------|
A|--2-2(flashback to 17)---2-2-pm....--2-2---------6-6---------2-2---------|
E|-------------------------------------0-0-pm....--4-4-pm....--0-0-pm-....-|

.......................................................

  Pre-Chorus Guitar 1

E|-----------------------------------------------------------|
B|-----------------------------------------------------------|
G|------4-------------8-------------4------------------------|
D|--4-4-4------2—-8-8-8------2--4-4-4------2------4------2---|
A|--2-2-2—-2-2-2—-6-6-6—-2-2-2--2-2-2—-2-2-2—-4-4-4—-2-2-2---|
E|---------0-0-0---------0-0-0---------0-0-0--2-2-2--0-0-0---|
    . .    . .    . .    . .    . .    . .    . .    . .

  Pre-Chorus Guitar 2
[ Tab from: http://www.guitartabs.cc/tabs/s/son_of_dork/ticket_outta_loserville_tab.html ]
E|--9-7-------------7---9---9---9-7-----------6---6---7---9---------|
B|------7---------7---7---7---7-----7-----------7---7---7-----------|
G|------------------------------------------------------------------|
D|------------------------------------------------------------------|
A|------------------------------------------------------------------|
E|------------------------------------------------------------------|

  End on

E|------------|
B|------------|
G|--8--9------| (let ring)
D|--8--9------|
A|--6—-7------|
E|------------|

.....................................................

  Chorus Guitar 1

E|--------------------------------------|
B|--------------------------------------|
G|--4-----------------------------------|
D|--4------2--6--4--2--4--2--4----------|
A|--2------2--6--4--2--4--2--4----------|
E|---------0--4--2--0--2--0--2----------|
                             Ticket Outta Loserville...

  Chorus Guitar 2

E|--7---9---11---9p7-------|
B|----7---7----7-----7-----|
G|-------------------------|  (x10)
D|-------------------------|
A|-------------------------|
E|-------------------------|

  Chorus Guitar 3 (Comes in at “flat line, things are so good that I'm”)

E|-----------------------------------------------------|
B|-----------------------------------------------------|
G|--13--16--15—-11-----16—-15—-9—-8—-6------9—-8—-11---|
D|---x---x---x---x------x---x—-x—-x--x------x—-x---x---|
A|--11—-14--13---9-----14—-15—-7—-6—-4------7—-6---9---|
E|-----------------------------------------------------|
                                                   Ticket Outta...

......................................................

E|------------------------------------------|
B|------------------------------------------|
G|--4--6--8--8/9\8--6--11--9--8/9\6--4------|
D|--x--x--x--x-x-x--x—--x--x--x-x-x--x------|
A|--2--4--6--6/7\6--4---9--7—-6/7\4--2------|
E|------------------------------------------|

......................................................

Repeat: Verse – Pre-Chorus – Chorus :

......................................................

  Bridge (Not sure)

E|--------------------------------------|
B|--------------------------------------|
G|--------------------------------------|
D|------4-----4---4-----4-----4---4-----| X4
A|----2-----2---------2-----2-----------|
E|--0-----0-----0---2-----2-----2-------|


  Bridge Part 2 Guitar 1+2

E|-----------------------------|
B|-----------------------------|
G|----------4------------------| x4
D|--4-------4---4-----2--------|
A|--4-------2c--4-----2--------|
E|--2pm....-----2pm..-0c-------|

  Bridge Part 2 Guitar 3

E|------------------------7-----7-----7---|
B|--------------------------7-----7-------|
G|--4-6-----------------------9-----9-----|
D|----------------------------------------|
A|----------------------------------------|
E|----------------------------------------|

......................................................

Repeat Chorus Twice

Ending

E|------------------------------------------|
B|------------------------------------------|
G|--4--6--8--8/9\8--6--11--9--8/9\6--4------|
D|--x--x--x--x-x-x--x—--x--x--x-x-x--x------|
A|--2--4--6--6/7\6--4---9--7—-6/7\4--2------|
E|------------------------------------------|
Comments