Son Of Dork - Sick Chords & Tabs

 

Sick Chords & Tabs

Son Of Dork Chords & Tabs

Version: 1 Type: Tab

Sick Tab

Song: Sick
Artist: Son Of Dork
Album: Welcome to loserville
Tuning: Standard (EADGBe)
Tabber: Dan Fallows (Sick of you)

Intro Piano Part

E|------------|------------|
B|------------|------------|
G|----2--0----|---2--0-----|
D|---------2--|--------2---| Repeat until it fades
A|--0---------|-0----------|
E|------------|------------| 

Chorus

E|----------------|-----------|
B|----------------|-----------|
G|----------------|-----------|
D|--3--5--7--10---|--3~--222--| 
A|--3--5--7--10---|--3~--222--|
E|--1--3--5---8---|--1~--000--|
     Repeat x3      Then this


Little delay effect solo thing after 1st Chorus.

E|-----------|
B|--/14--13--|<<< slide down on the last note, repeat x2
G|-----------|

Chorus
[ Tab from: http://www.guitartabs.cc/tabs/s/son_of_dork/sick_tab.html ]
E|----------------|-----------|
B|----------------|-----------|
G|----------------|-----------|
D|--3--5--7--10---|--3~--222--| 
A|--3--5--7--10---|--3~--222--|
E|--1--3--5---8---|--1~--000--|
     Repeat x3      Then this


--Piano Interlude--

Chorus

E|----------------|-----------|
B|----------------|-----------|
G|----------------|-----------|
D|--3--5--7--10---|--3~--222--| 
A|--3--5--7--10---|--3~--222--|
E|--1--3--5---8---|--1~--000--|
     Repeat x3      Then this

--Solo-- < Working on


Chorus over solo

E|----------------|-----------|
B|----------------|-----------|
G|----------------|-----------|
D|--3--5--7--10---|--3~--222--| 
A|--3--5--7--10---|--3~--222--|
E|--1--3--5---8---|--1~--000--|
     Repeat x3      Then this

Thats it! amazing song! i updated this cause it did look abit short.