Son Of Dork - I Want You Back Chords & Tabs

 

I Want You Back Chords & Tabs

Son Of Dork Chords & Tabs

Version: 1 Type: Tab

I Want You Back Tab

 Okeeii.. This is my first tab.. I know that is not the whole song.. but i write it down anyway ;)


Intro and verse ( I dunno if this is right =P But you'll figure it out =))

    e ------9-------------|
    B ------9-------------|
    G ------10------------|
    D --------------------|
    A --------------------|
    E --------------------|

[ Tab from: http://www.guitartabs.cc/tabs/s/son_of_dork/i_want_you_back_tab.html ]
Chorus
    e ------------------------------------------|
    B ------------------------------------------|
    G ------------------------------------------|
    D ---6--5--3--------------------------------|
    A ---4--3--1---6---4---3---4---3---4---6----|
    E -------------4---2---1---2---1---2---4----|


    e ------------------------------------------|
    B ------------------------------------------|
    G ------------------------------------------|
    D ---3-----------6---8-------6--------------|
    A ---1---3---4---4---6---6---4--------------|
    E -------1---2-----------4------------------|

Hope you like it ;)     
Cathy<3