Something Like Silas - Creations Call Chords & Tabs

 

Creations Call Chords & Tabs

Something Like Silas Chords & Tabs

Version: 1 Type: Tab 0 ratings
1 star 2 stars 3 stars 4 stars 5 stars
comments

Creations Call Tab

   
-------------------------------------------------------------------------------
                CREATION'S CALL - Something Like Silas
-------------------------------------------------------------------------------



~   - let ring out
/ \ - slide
h   - hammer on
p   - pull off
b   - bend
r   - release
t   - tremolo picking
v   - vibrato


GUITAR 1'S PARTS:
-----------------
Chords Used:
    C#5   A5   B5   F#5   C#m7  Asus2
e|-------------------------0------0---------|
B|-------------------------0------0---------|
G|---6----2----4-----------6------2---------|
D|---6----2----4-----4-----6------2---------|
A|---4----0----2-----4-----4------0---------|
E|-------------------2----------------------|

Intro:  C#m7 - Asus2

Verse:
C#m7 - Asus2 (4x)

Chorus:
A5      B5   C#5   F#5
A5      B5   C#5
A5      B5   C#5   F#5
A5      B5   C#5
A5      B5   C#5   F#5  A5  B5

Break:  C#m7 - Asus2

Repeat Verse

Repeat Chorus

Bridge:  A5 - B5 - C#5 - F#5
         A5 - B5 - C#5
         A5 - B5 - C#5 - F#5
         A5 - B5

Outro:  C#m7 - Asus2  (3x)

GUITAR 2'S PARTS:
-----------------
Intro:
e|---4~~~---5~--4~~~-----------|
B|--------------------5~-------|
G|-----------------------------|
D|-----------------------------|
A|-----------------------------|
E|-----------------------------|

Verse:  (2x)
e|-12~--11~------------12~--11~--7~-----------|
B|------------7~--9~------------------7~------|
G|--------------------------------------------|
D|--------------------------------------------|
A|--------------------------------------------|
E|--------------------------------------------|

Chorus:
e|---------------------------------------------------------------------------|
B|-5--5--4-4-4--5--5--4-4-4--5--5--4-4/7~----9h10-9h10-9--/12~--12~----------|
G|---------------------------------------------------------------------------|
D|---------------------------------------------------------------------------|
A|---------------------------------------------------------------------------|
E|---------------------------------------------------------------------------|

Chorus Cont'd:
e|------------------------------------------------------------------11b12~~~-|
B|-5--5--4-4-4--5--5--4-4-4--5--5--4-4/7~----9h10-9h10-9--/12~--12~----------|
G|---------------------------------------------------------------------------|
D|---------------------------------------------------------------------------|
A|---------------------------------------------------------------------------|
E|---------------------------------------------------------------------------|
[ Tab from: http://www.guitartabs.cc/tabs/s/something_like_silas/creations_call_tab.html ]
Chorus Cont'd:
e|---------------------------------------------------------------------------|
B|-5--5--4-4-4--5--5--4-4-4--5--5--4-4/7~----9h10-9h10-9--/12~--14~~~--------|
G|---------------------------------------------------------------------------|
D|---------------------------------------------------------------------------|
A|---------------------------------------------------------------------------|
E|---------------------------------------------------------------------------|

Break:  (2x)
e|-------7~----------|
B|---7-----7---7-----|
G|-9---9-----9-------|
D|-------------------|
A|-------------------|
E|-------------------|

2nd Verse:  (2x)
e|-------7~-------------7~------------7~-------------9~----------------------|
B|---7------7---7---7-----7---7---7------7---7---7------7---7----------------|
G|-9---9------9---8---8-----8---9---9------9---9---9------9------------------|
D|---------------------------------------------------------------------------|
A|---------------------------------------------------------------------------|
E|---------------------------------------------------------------------------|

2nd Verse Cont'd:  (2x)
e|--11---11---11---11---11---11---11---11---12---12---12---12---12---12---12-|
B|9----9----9----9----9----9----9----9----9----9----9----9----9----9----9----|
G|---------------------------------------------------------------------------|
D|---------------------------------------------------------------------------|
A|---------------------------------------------------------------------------|
E|---------------------------------------------------------------------------|

Repeat Chorus

Solo:
e|------9-7--14--12~-11b12r11------------------------------------------------|
B|-/7-5-----------------------12-14v-14v-14v-14v-14v-14v-14/16-12-12-12-12---|
G|---------------------------------------------------------------------------|
D|---------------------------------------------------------------------------|
A|---------------------------------------------------------------------------|
E|---------------------------------------------------------------------------|

Solo Cont'd:
e|------------------------------------------------------------21t>>>---------|
B|12-12-12-16b17r16----16b17r16----19b(slow bend)-19b21r19-------------------|
G|------------------16----------16-------------------------18----------------|
D|---------------------------------------------------------------------------|
A|---------------------------------------------------------------------------|
E|---------------------------------------------------------------------------|

Solo Cont'd:
e|---------------------------------------------------------------------------|
B|---------------------------------------------------------------------------|
G|---------------------------------------------------------------------------|
D|---2-/6b7r6-----6b7r6-------------------------11b(slow bend)---------------|
A|-0----------9~--------9-----9-11~--11b12r11-9------------------------------|
E|------------------------7/9------------------------------------------------|

Solo Cont'd:
e|-19-17-15-12-14~-15t>>>-16~-----|
B|--------------------------------|
G|--------------------------------|
D|--------------------------------|
A|--------------------------------|
E|--------------------------------|

Outro:  (Repeat Verse)
Comments