Something For Nothing - All The Things Chords & Tabs

 

All The Things Chords & Tabs

Something For Nothing Chords & Tabs

Version: 1 Type: Tab 0 ratings
1 star 2 stars 3 stars 4 stars 5 stars
comments

All The Things Tab

australian band  
      All The Things
intro
-----------------------------------------------
-----------------------------------------------
-----------------------------------------------
------55-----99-----77-----1212----------------
------55-----99-----77-----1212----------------
---0--33--0--77--0--55--0--1010----------------

verse1 & chorus
-----------------------------------------------
-----------------------------------------------
-----------------------------------------------
---9999999--12121212121212--7777777--8888888---
---7777777--10101010101010--5555555--6666666---
-----------------------------------------------

verse2
-----------------------------------------------
-----------------------------------------------
-----------------------------------------------
-----------------------------------------------
---9999999--7777777--9999999--7777777----------
---7777777--5555555--7777777--5555555----------
[ Tab from: http://www.guitartabs.cc/tabs/s/something_for_nothing/all_the_things_tab.html ]
outro
-----------------------------------------------
-----------------------------------------------
-----------------------------------------------
------55-----77-----44-----55------------------
------55-----77-----44-----55------------------
---0--33--0--55--0--22--0--33------------------

All the things you cared about
They dont matter anymore
All the things you wanted to be
There just has to be a score

All the stuff you planned for,
Wasn't looking bright
All the things that went wrong 
Just screwed up ya life

All the things all the things
That went through your head
All the things all the things
You might aswell be dead

That one time you went to school
They didnt even care
To take a look and realise 
Who was even there

All the things all the things
That went through your head
All the things all the things
You might aswell be dead

The time you saw that girl dancing at the show
You asked her once, asked her twice she didnt want to know

You told her she looked nice
She didnt really care
She left you by yourself
She'd rather not be there

All the things all the things
That went through your head
All the things all the things
You might aswell be dead

All the stuff you planned for,
Wasn't looking bright
All the things that went wrong 
Just screwed up ya life

All the things all the things
That went through your head
All the things all the things
You might aswell be dead
Comments