Something For Kate - Monsters Chords & Tabs

 

Monsters Chords & Tabs

Something For Kate Chords & Tabs

Version: 1 Type: Tab 0 ratings
1 star 2 stars 3 stars 4 stars 5 stars
comments

Monsters Tab

   
Artist: Something For Kate
Song: Monsters
Album: Echolalia (2001).

I can't fuking believe that this song hasn't been posted yet!! it is an easy song to 
play and it is good!!! This is my first tab but I'm sure all of it's correct exept for 
the Bridge...so this is how i play it.

Standard Tuning with Capo on 1st Fret.(all notes relative to capo!!!)

intro

e-----------------
B-----------------
G----------------- do that 3x then do this
D-5-5-5-5-2-2-2-2-
A-3-3-3-3-2-2-2-2-
E-3-3-3-3-0-0-0-0-

e------
B------
G------
D-5-5-5
A-3-3-3
E-3-3-3

Verse(i can't be bothered riting the strumming pattern...)

(i was hanging upside down from the overpass...)
e--------------
B--------------
G--------------
D-5-9-7--5-7-9-
A-3-7-5--3-5-7-
E-3-7-5--3-5-7-

pre chorus
(and i don't wanna slide in to apathy...)
[ Tab from: http://www.guitartabs.cc/tabs/s/something_for_kate/monsters_tab.html ]
e--------------
B--------------
G--------------
D-5-9-7--5-7-9-
A-3-7-5--3-5-7-
E-3-7-5--3-5-7-

Chorus

(wipe me out...)
e---0-0-0-0-0---0-0-0-0-0---0-0-0-0-0-
B---0-0-0-0-0---0-0-0-0-0---0-0-0-0-0-
G---6-6-6-6-6---4-4-4-4-4---2-2-2-2-2-
D-7-7-7-7-7-7-5-5-5-5-5-5-3-3-3-3-3-3-
A-7-7-7-7-7-7-5-5-5-5-5-5-3-3-3-3-3-3-
E-5-5-5-5-5-5-3-3-3-3-3-3-1-1-1-1-1-1-
  v v ^ ^ v ^ v v ^ ^ V ^ v v ^ ^ V ^

Bridge (i'm not sure if this is correct but this is tha way i play it...) 

(hold it in your head...)
e-----1-1-1-0-0-0-0-0-0-0-0-0-0-0-0-0-
B-3-3-3-3-3-3-3-3-3-3-3-3-3-3-3-3-3-3-
G-2-2-2-2-2-2-2-2-0-0-0-0-0-0-0-0-0-0-
D-0-0-0-0-0-0-0-0-2-2-2-2-0-0-0-0-0-0-
A-----------------3-3-3-3-2-2-2-2-2-2-
E-------------------------3-3-3-3-3-3-
  v v ^ ^ v ^ v ^ v ^ v ^ v ^ v ^ v ^


Hope ya like tha tab....it took me ages to tab the stumming patterns for the chorus but 
hey.....i was bored!!! This is a great song so enjoy. 
Catch!

MJ

silverbizkit182@hotmail.com
Comments