Something For Kate - Easy Chords & Tabs

 

Easy Chords & Tabs

Something For Kate Chords & Tabs

Version: 2 Type: Bass Tab 0 ratings
1 star 2 stars 3 stars 4 stars 5 stars
comments

Easy Bass Tab

   
Easy - Something for Kate
Bass Tab

Tabbed by Conan Thorogood (errolschmidt@powerup.com.au)

(Tempo = 82 bpm)

Bass comes in with vocals...
"I saved you the trouble..."

   1       2       3       4       1       2       3       4
G|:-----------------------------------------------------------------
D|:4-----------4---2---0--------------------------------------------
A|:----2-0-2---------------4---0------------------------------------
E|:-----------------------------------------------------------------

   1       2       3       4       1       2       3       4
G|-----------------------------------------------------------------:|
D|-4-----------4---2---0-------------------------------------------:|
A|-----2-0-2---------------4---0-----------------------------------:|
E|-----------------------------------------------0-0---------------:|      x2

   1       2       3       4       
G|---------------------------------
D|-4-----------4---2---0-----------
A|-----2-0-2---------------4---0---
E|---------------------------------

   1       2       3       4       1       2       3       4
G|:------------------------5-------------------------------4--------
D|:3---3---------3-3---3-------3---2---2---------2-2---2-------2----
A|:-----------------------------------------------------------------
E|:-----------------------------------------------------------------

   1       2       3       4       1       2       3       4
G|-------------------------7-------------------------------5-------:|
D|-5---5---------5-5---5-------5---3---3---------3-3---3-------3---:|
A|-----------------------------------------------------------------:|
E|-----------------------------------------------------------------:|       x2

2nd Verse
"I read the subtitles..."
(Repeat verse riff 2x)

then,
   1       2       3       4       1       2       3       4
G|:----------------------------------------------------------------:|
D|:4-----------4---2---0-------------------------------------------:|
A|:----2-0-2---------------4---0-----------------------------------:|
E|:----------------------------------------------------------------:|       x3

   1       2       3       4       
G|---------------------------------
D|-4-----------4---2---0-----------
A|-----2-0-2---------------4---0---
E|---------------------------------
[ Tab from: http://www.guitartabs.cc/tabs/s/something_for_kate/easy_btab_ver_2.html ]
Bridge
   1       2       3       4       1       2       3       4
G|:----------------------------------------------------------------:|
D|:----------------------------------------------------------------:|
A|:----------------------------------------------------------------:|
E|:1-1-1-1-1-1-1-1-1-1-1-1-1-1-1-1-1-1-1-1-1-1-1-1-1-1-1-1-1-1-1-1-:|      x2

"Easy..."
   1       2       3       4       1       2       3       4
G|:-----------------------------------------------------------------
D|:-----------------------------------------------------------------
A|:-----------------------------------------------------------------
E|:1---1---1-----1-1---1-------1---0---0---0-----0-0---0-------0/---

   1       2       3       4       1       2       3       4
G|-----------------------------------------------------------------:|
D|-----------------------------------------------------------------:|
A|-----------------------------------------------------------------:|
E|-3---3---3-----3-3---3-------3---1---1---1-----1-1---1-------1---:|       x4

"I saved you the trouble..."
   1       2       3       4       1       2       3       4
G|:----------------------------------------------------------------:|
D|:----------------------------------------------------------------:|
A|:----------------------------------------------------------------:|
E|:5-7-7-7-7-5-5-5-5-7-7-7-7-5-5-5-5-------------------------------:|       x3

   1       2       3       4       1       2       3       4
G|------------------------------------------------------------------|
D|------------------------------------------------------------------|
A|------------------------------------------------------------------|
E|-5-7-7-7-7-5-5-5-5-7-7-7-7-5--------------------------------------|


Coda:
   (4)       1       2       3       4       1       2       3       4
G|-----2--|:-4-----2---------------------2---4-----2----------------------2----:|
D|--------|:--------------2-------------------------------2--------------------:|
A|--------|:-------------------------------------------------------------------:|
E|--------|:-------------------------------------------------------------------:|     x10

Ok, cool, um... as usual, most of it should be right, but please send any corrections
or suggestions to errolschmidt@powerup.com.au.
Enjoy.
:-)
Comments