Something Corporate - Youre Gone Chords & Tabs

 

Youre Gone Chords & Tabs

Something Corporate Chords & Tabs

Version: 1 Type: Tab 0 ratings
1 star 2 stars 3 stars 4 stars 5 stars
comments

Youre Gone Tab

   
Something Coporate - You're Gone
GREAT Track off of LTTW

By: Jay Courtney 
Handle: acupofcoffeeee (emblem on UG.com) 


Normal Tuning 
-EADGBE-


Intro:
Guitar I
------------------------------
------------------------------ 
-9---7---5---4---5---4--5--7--
-x---x---x---x---x---x--x--x--
-7---5---3---2---3---2--3--5--
------------------------------


-------------------------
-------------------------
-9---7---12---16---14~---
-x---x---x----x----x-~---
-7---5---10---14---12~---
-------------------------

Guitar II

  Am    C     F
--0-----0-----0---------------
--1-----1-----1---------------
--2-----0-----2---------------
--2-----2-----3---------------
--0-----3-----0---------------
--0-----0-----0---------------


Verse:
Guitar I or II
[ Tab from: http://www.guitartabs.cc/tabs/s/something_corporate/youre_gone_tab.html ]
  Am    C     F
--0-----0-----0---------------
--1-----1-----1---------------
--2-----0-----2---------------
--2-----2-----3---------------
--0-----3-----0---------------
--0-----0-----0---------------



Chorus:

 F5   C5   A5   G5
------------------------
------------------------
------5-----------------  (x3)
-3----5----7----5-------
-3----3----7----5-------
-1---------5----3-------


 A5     G5     F5
------------------------
------------------------
------------------------
-7------5------1--------
-7------5------1--------
-5------3------3--------

Verse

Chorus

Bridge:

 G5   F5
----------
----------
----------
-5----3---
-3----3---
-3----1---
(pm)....

Verse

Chorus
Comments