Something Corporate - This Broken Heart Chords & Tabs

 

This Broken Heart Chords & Tabs

Something Corporate Chords & Tabs

Version: 1 Type: Tab 0 ratings
1 star 2 stars 3 stars 4 stars 5 stars
comments

This Broken Heart Tab

Song: "This Broken Heart"
Artist: Something Corporate
Tabber: Jeremy Wilken

Tuning: Drop D

Intro
e | ---0---3---10---5---0---3~
B | ---0---3---10---5---0---3~
G | ---0---3---10---5---0---3~
D | ---x---x----x---x---x---x~
A | ---x---x----x---x---x---x~
D | ---x---x----x---x---x---x~

Verse (3x)
e | ---3---5---7---10---|
B | ---3---5---7---10---|
G | ---3---5---7---10---|
D | ---x---x---x----x---|
A | ---x---x---x----x---|
D | ---x---x---x----x---|

Chorus
[ Tab from: http://www.guitartabs.cc/tabs/s/something_corporate/this_broken_heart_tab.html ]
e | ---0---3---10---5---0---3~
B | ---0---3---10---5---0---3~
G | ---0---3---10---5---0---3~
D | ---x---x----x---x---x---x~
A | ---x---x----x---x---x---x~
D | ---x---x----x---x---x---x~

Bridge

e | 3---10---7---5---3---10---7---5---3---10---7---5---3~
B | 3---10---7---5---3---10---7---5---3---10---7---5---3~
G | 3---10---7---5---3---10---7---5---3---10---7---5---3~
D | x----x---x---x---x----x---x---x---x----x---x---x---x~
A | x----x---x---x---x----x---x---x---x----x---x---x---x~
D | x----x---x---x---x----x---x---x---x----x---x---x---x~

Intro
Verse
Chorus
Verse
Chorus
Bridge
Chorus
Comments