Something Corporate - Punkrock Princess Chords & Tabs

 

Punkrock Princess Chords & Tabs

Something Corporate Chords & Tabs

Version: 1 Type: Tab 0 ratings
1 star 2 stars 3 stars 4 stars 5 stars
comments

Punkrock Princess Tab

Artist: Something Corporate
Song: Punkrock Princess
Album: Audioboxer
Tabbed By: Joe Stulpin

It’s a very easy song to play.
STANDARD TUNING

Intro:

E-----------------------------------------------------
B-----------------------------------------------------
G-----------------------------------------------------
D---9--9--9--9--10-10-10-10-12-12-12-12-12-12-12-12---
A---9--9--9--9--10-10-10-10-12-12-12-12-12-12-12-12---
E---7--7--7--7--8--8--8--8--10-10-10-10-10-10-10-10---

Verse = Same But Palm Muted

Pre Chorus:
[ Tab from: http://www.guitartabs.cc/tabs/s/something_corporate/punkrock_princess_tab.html ]
E-----------------------------------------------------
B-----------------------------------------------------
G-----------------------------------------------------
D---5--5--5--5--5--5--5--5--5--5--5--5--5--5--5--5----
A---5--5--5--5--5--5--5--5--5--5--5--5--5--5--5--5----
E---3--3--3--3--3--3--3--3--3--3--3--3--3--3--3--3----

E-----------------------------------------------------
B-----------------------------------------------------
G-----------------------------------------------------
D--10-10-10-10-10-10-10-10-10-10-10-10-10-10-10-10----
A--10-10-10-10-10-10-10-10-10-10-10-10-10-10-10-10----
E--8--8--8--8--8--8--8--8--8--8--8--8--8--8--8--8-----

Chorus:

E-----------------------------------------------------
B-----------------------------------------------------
G--4--4--4--4--2--2--2--2--7--7--7--7--7--7--7--7-----
D--4--4--4--4--2--2--2--2--7--7--7--7--7--7--7--7-----
A--2--2--2--2--0--0--0--0--5--5--5--5--5--5--5--5-----
E-----------------------------------------------------

Tell me what you think... xxiamjoexx69@hotmail.com
Comments