Something Corporate - Punk Rock Princess Chords & Tabs

 

Punk Rock Princess Chords & Tabs

Something Corporate Chords & Tabs

Version: 7 Type: Tab 0 ratings
1 star 2 stars 3 stars 4 stars 5 stars
comments

Punk Rock Princess Tab

-------------------------------------------------------------------------------
			     Punk Rock Princess - Something Corporate
-------------------------------------------------------------------------------
Tabbed by: biph911	


Tuning:EADGBE
Heavy Distortion

My first tab, this is the way I play it.  It is similar to a couple of the versions already listed.

Intro
e|---------------------------------------------------------------------------|
B|---------------------------------------------------------------------------|
G|---------------------------------------------------------------------------|
D|---9-9-9-9-10-10-10-10-12-12-12-12-12-12-12-12-----------------------------|
A|---9-9-9-9-10-10-10-10-12-12-12-12-12-12-12-12--x4 Open--------------------|
E|---7-7-7-7-8--8--8--8--10-10-10-10-10-10-10-10-----------------------------|
Verse
e|---------------------------------------------------------------------------|
B|---------------------------------------------------------------------------|
G|---------------------------------------------------------------------------|
D|---9-9-9-9-10-10-10-10-12-12-12-12-12-12-12-12-----------------------------|
A|---9-9-9-9-10-10-10-10-12-12-12-12-12-12-12-12--x8 palm muted except last--| 
E|---7-7-7-7-8--8--8--8--10-10-10-10-10-10-10-10-----------------------------|
Pre-Chorus
e|---------------------------------------------------------------------------|
B|---------------------------------------------------------------------------|
G|---------------------------------------------------------------------------|
D|---5-5-5-5-5-5-5-5-5-5-5-5--10-10-10-10-10-10-10-10-10-10-10-10------------|
A|---5-5-5-5-5-5-5-5-5-5-5-5--10-10-10-10-10-10-10-10-10-10-10-10------------|
E|---3-3-3-3-3-3-3-3-3-3-3-3---8--8--8--8--8--8--8--8--8--8--8--8------------|
Chorus
e|---------------------------------------------------------------------------|
B|---------------------------------------------------------------------------|
G|---------------------7-7-7-7-7-7-7-7---------------------------------------|
D|---9-9-9-9--5-5-5-5--7-7-7-7-7-7-7-7-----x4 open---------------------------|
A|---9-9-9-9--5-5-5-5--5-5-5-5-5-5-5-5---------------------------------------|
E|---7-7-7-7--3-3-3-3--------------------------------------------------------|
[ Tab from: http://www.guitartabs.cc/tabs/s/something_corporate/punk_rock_princess_tab_ver_7.html ]
              e|---------------------------------------------------------|
              B|---------------------------------------------------------|
              G|---7-----------------------------------------------------|
              D|---7--------------------------12-------------------------|
              A|---5--can also be played as --12-------------------------|
              E|------------------------------10-------------------------|
Verse
e|---------------------------------------------------------------------------|
B|---------------------------------------------------------------------------|
G|---------------------------------------------------------------------------|
D|---9-9-9-9-10-10-10-10-12-12-12-12-12-12-12-12-----------------------------|
A|---9-9-9-9-10-10-10-10-12-12-12-12-12-12-12-12--x8 palm muted except last--| 
E|---7-7-7-7-8--8--8--8--10-10-10-10-10-10-10-10-----------------------------|
Pre-Chorus
e|---------------------------------------------------------------------------|
B|---------------------------------------------------------------------------|
G|---------------------------------------------------------------------------|
D|---5-5-5-5-5-5-5-5-5-5-5-5--10-10-10-10-10-10-10-10-10-10-10-10------------|
A|---5-5-5-5-5-5-5-5-5-5-5-5--10-10-10-10-10-10-10-10-10-10-10-10------------|
E|---3-3-3-3-3-3-3-3-3-3-3-3---8--8--8--8--8--8--8--8--8--8--8--8------------|
Chorus
e|---------------------------------------------------------------------------|
B|---------------------------------------------------------------------------|
G|---------------------7-7-7-7-7-7-7-7---------------------------------------|
D|---9-9-9-9--5-5-5-5--7-7-7-7-7-7-7-7-----x4 open-----Repeat----------------|
A|---9-9-9-9--5-5-5-5--5-5-5-5-5-5-5-5---------------------------------------|
E|---7-7-7-7--3-3-3-3--------------------------------------------------------|
Bridge
e|---------------------------------------------------------------------------|
B|------let ring each time---------------------------------------------------|
G|---------------------------------------------------------------------------|
D|-x-x-9-9----x-x-12-12----x-x-9-9----x-x-12-12---7-7-7-7-7-7-7-7-7-7-7-7----|
A|-x-x-9-9----x-x-12-12----x-x-9-9----x-x-12-12---7-7-7-7-7-7-7-7-7-7-7-7----| 
E|-x-x-7-7----x-x-10-10----x-x-7-7----x-x-10-10---5-5-5-5-5-5-5-5-5-5-5-5----|
Chorus
e|---------------------------------------------------------------------------|
B|---------------------------------------------------------------------------|
G|---------------------7-7-7-7-7-7-7-7---------------------------------------|
D|---9-9-9-9--5-5-5-5--7-7-7-7-7-7-7-7-----x4 open-----Repeat until end------|
A|---9-9-9-9--5-5-5-5--5-5-5-5-5-5-5-5---------------------------------------|
E|---7-7-7-7--3-3-3-3--------------------------------------------------------|


| x  Mute note
Comments