Something Corporate - Letters To Noelle Chords & Tabs

 

Letters To Noelle Chords & Tabs

Something Corporate Chords & Tabs

Version: 2 Type: Tab 0 ratings
1 star 2 stars 3 stars 4 stars 5 stars
comments

Letters To Noelle Tab

   
-------------------------------------------------------------------------------
Letters to Noelle - Something Corporate
-------------------------------------------------------------------------------
This is one of my favorite SoCo songs.  It's pretty simple but a great song none the less.  These guys rock.

Tabbed by: John Klein 
Email: Jck837@truman.edu

Tuning: Standard

Intro:  G       D/F#      D/B       D/G

e|------3---3----x---------x----0----x---------|
B|------3---3----3---------3----3----3---------|
G|----0h2---2----2-------0h2----2----2---------|
D|------0--------0---------0---------0---------|
A|------x--------x---------2---------x---------|
E|------3--------2---------x---------3---------| 

        G        D        D/B        D

e|------3---3----5---------5---3p2-------------|
B|------3---3----3-------------------3---------|
G|----0h2---2----2-----------------------------|
D|------0--------0-----------------------------|
A|------x--------------------------------------|
E|------3--------------------------------------|

Verse:  G   D/F#   D/B   D
[ Tab from: http://www.guitartabs.cc/tabs/s/something_corporate/letters_to_noelle_tab_ver_2.html ]
Chorus:   D     B     Bm    G     D    D/B    G
e|--------2-----3-----2-----3-----2-----2-----3----------|
B|--------3-----3-----3-----3-----3-----3-----3----------|
G|--------2-----0-----4-----0-----2-----2-----0----------| 2x
D|--------0-----0-----4-----0-----0-----0-----0----------|
A|--------------2-----2-----2-----------2-----2----------|
E|--------------3-----------3-----------------3----------|

Solo:
e|----------------------------------------10--12--12b14r12-10--1412--------|
B|-------------------108-7h8h10-10h12------------------------------12-10\|
G|------79b11r9--7---------------------------------------------------------|
D|-7h9----------------------------------------------------------------------|
A|--------------------------------------------------------------------------|
E|--------------------------------------------------------------------------|

| /  slide up            G     D/F#   D/B     D
 \  slide down           3      2      2      2
| h  hammer-on           3      3      3      3
| p  pull-off            0      2      2      2
| ~  vibrato             0      0      0      0
| +  harmonic            2      x      2      x
| x  Mute note           3      2      x      x
===============================================================================
Comments