Something Corporate - If You C Jordan Chords & Tabs

 

If You C Jordan Chords & Tabs

Something Corporate Chords & Tabs

Version: 4 Type: Tab 0 ratings
1 star 2 stars 3 stars 4 stars 5 stars
comments

If You C Jordan Tab

hey this is a good band but I've seen most tabs for this song and they aren't getting
the end part of the intro right so here is what I think it is:


Intro Play Through Twice
E|---------------------------------------------------------|
B|---------------------------------------------------------|
G|---------------5-5-5-5-5-5--8-8-8-8-8-8-8----------------|
D|--6-6-6-6-6-6--5-5-5-5-5-5--8-8-8-8-8-8-8--4-4-4--3-3-3--|
A|--6-6-6-6-6-6--3-3-3-3-3-3--6-6-6-6-6-6-6--4-4-4--3-3-3--|
E|--4-4-4-4-4-4------------------------------2-2-2--1-1-1--|


The small solo riff at the 0:13-0:14 mark
E|-------------------------9----|
B|--------------------7---------|
G|------8-6-5-5---6-8-----------|
D|--6---------------------------|
A|------------------------------|
E|------------------------------|
[ Tab from: http://www.guitartabs.cc/tabs/s/something_corporate/if_you_c_jordan_tab_ver_4.html ]
verse - play it 3 times then louder PM the 4th time 
E|---------------------------------------------------------|
B|---------------------------------------------------------|
G|---------------5-5-5-5-5-5--8-8-8-8-8-8-8----------------|
D|--6-6-6-6-6-6--5-5-5-5-5-5--8-8-8-8-8-8-8--4-4-4--3-3-3--|
A|--6-6-6-6-6-6--3-3-3-3-3-3--6-6-6-6-6-6-6--4-4-4--3-3-3--|
E|--4-4-4-4-4-4------------------------------2-2-2--1-1-1--|
 PM ~~~~~~~~~~~  ~~~~~~~~~~~  ~~~~~~~~~~~~~  (1st and 3rd 
                                              time in verse)
(SOLO after "and you still won't quit" the second time)
E|------------------------------------------------|
B|---------------------------------7-7-------7-4--|
G|-----4-6b(8)r6-4-----4-6-4-6b(8)-----6b(8)-----6|
D|---6-------------6------------------------------|
A|------------------------------------------------|
E|------------------------------------------------|


E|-------------------------------------14-14------|
B|----4-7-4-----7-4-9-9-----15----15b(16)---------|
G|-4--------6-4---------16----16------------------|
D|------------------------------------------------|
A|------------------------------------------------|
E|------------------------------------------------|

E|------14----------------------------------------|
B|-(16)----(16)r15-14--14-16-14-------------------|
G|--------------------------------12--------------|
D|-----------------------------------14-12--------|
A|-----------------------------------------14-12--|
E|------------------------------------------------|


E|------------------------------------------------|
B|------------------------------------------------|
G|------------------------------------------------|
D|--------------------4b(5)-(5)-------------------|
A|-14----7-6-4----7-6------------7--6-------------|
E|----4-------------------------------------------|

E|------------------------------------------------|
B|----------------7b(8)-7\---777-999--------------|
G|-9-8-7-6--6-7-8------------666-888--------------|
D|------------------------------------------------|
A|------------------------------------------------|
E|------------------------------------------------|

Hope this helps! -gp7231
Comments