Something Corporate - If You C Jordan Chords & Tabs

 

If You C Jordan Chords & Tabs

Something Corporate Chords & Tabs

Version: 1 Type: Tab 0 ratings
1 star 2 stars 3 stars 4 stars 5 stars
comments

If You C Jordan Tab

OK THIS IS MY FIRST TAB SO BE GENTLE.....I REALLY LIKE THIS SONG AND I NOTICED THAT IT 
WASN'T ON HERE SO I DECIDED TO TAB IT. SOMETHING CORPORATE IS A GREAT BAND AND IF YOU 
HAVEN'T HEARD OF THEM CHECK EM OUT! OK ENJOY...I HOPE IT'S RIGHT CORRECT ME IF IM WRONG.

regular tuning

intro 2x's
E|---------------------------------------------------------
B|---------------------------------------------------------
G|--------------5-5-5-5-5-5-8-8-8-8-8-8-8-11-11-11-10-10-10
D|--6-6-6-6-6-6-5-5-5-5-5-5-8-8-8-8-8-8-8-11-11-11-10-10-10
A|--6-6-6-6-6-6-3-3-3-3-3-3-6-6-6-6-6-6-6-9 -9 -9- 8- 8 -8-
E|--4-4-4-4-4-4--------------------------------------------


now here's the little solo riff thing 2x's
E|-------------------------9----|
B|--------------------7---------|
G|------8-6-5-5---6-8-----------|
D|--6---------------------------|
A|------------------------------|
E|------------------------------|

verse 
E|----------------------------------------------------------
B|----------------------------------------------------------
G|----------------------------------11---10-----------------
D|----------------------------------11---10-----------------
A|--------------------------------- 9--- 8------------------
E|----------------------------------------------------------

i have a story a bitter anthem for everyone to hear about this kid who just dont like me

E|----------------------------------------------------------
B|----------------------------------------------------------
G|----------------------------------11---10-----------------
D|----------------------------------11---10-----------------
A|--------------------------------- 9--- 8------------------
E|----------------------------------------------------------
they say hes hunting me and as you see im all swelled up in fear

bridge before the chours (same as intro, only palm-muted)
E|----------------------------------------------------------
B|----------------------------------------------------------
G|-------------5-5-5-5-5-5-8-8-8-8-8-8-8-11-11-11-10-10-10--
D|-6-6-6-6-6-6-5-5-5-5-5-5-8-8-8-8-8-8-8-11-11-11-10-10-10--
A|-6-6-6-6-6-6-3-3-3-3-3-3-6-6-6-6-6-6-6- 9- 9- 9- 8 -8 -8--
E|-4-4-4-4-4-4----------------------------------------------
pm~~~~~~~~~~~~~~~~~~~~~~~~~~~~~~~~~~~~~~~~~~~~~~~~~~~~~~~~~~
and i cant get him off my back

chours (same as intro)4x's
E|---------------------------------------------------------
B|---------------------------------------------------------
G|--------------5-5-5-5-5-5-8-8-8-8-8-8-8-11-11-11-10-10-10
D|--6-6-6-6-6-6-5-5-5-5-5-5-8-8-8-8-8-8-8-11-11-11-10-10-10
A|--6-6-6-6-6-6-3-3-3-3-3-3-6-6-6-6-6-6-6-9 -9 -9- 8- 8 -8-
E|--4-4-4-4-4-4--------------------------------------------

if you see jordan, if you see jordan, he makes me sick, he makes me sick. high school's 
over, high school's over, and you still won't quit.
[ Tab from: http://www.guitartabs.cc/tabs/s/something_corporate/if_you_c_jordan_tab.html ]
solo riff thing again...
E|-------------------------9----|
B|--------------------7---------|
G|------8-6-5-5---6-8-----------|
D|--6---------------------------|
A|------------------------------|
E|------------------------------|

then verse...
E|----------------------------------------------------------
B|----------------------------------------------------------
G|----------------------------------11---10-----------------
D|----------------------------------11---10-----------------
A|--------------------------------- 9--- 8------------------
E|----------------------------------------------------------

you tried to fight me down at tyler's beach, and man i think that's great.
you nearly cried and said to yell at you, like i do at all the girls.

E|----------------------------------------------------------
B|----------------------------------------------------------
G|----------------------------------11---10-----------------
D|----------------------------------11---10-----------------
A|--------------------------------- 9--- 8------------------
E|----------------------------------------------------------
then you drove home real quick did you make it inside to masturbate?

bridge
E|----------------------------------------------------------
B|----------------------------------------------------------
G|-------------5-5-5-5-5-5-8-8-8-8-8-8-8-11-11-11-10-10-10--
D|-6-6-6-6-6-6-5-5-5-5-5-5-8-8-8-8-8-8-8-11-11-11-10-10-10--
A|-6-6-6-6-6-6-3-3-3-3-3-3-6-6-6-6-6-6-6--9--9--9--8--8--8--
E|-4-4-4-4-4-4----------------------------------------------
pm~~~~~~~~~~~~~~~~~~~~~~~~~~~~~~~~~~~~~~~~~~~~~~~~~~~~~~~~~~
there's far too many of you in this world

chours...blah blah blah i think you get it

now the solo..
E|----------------------------------------------------------
B|----------------------------------------------------------
G|-----5-8---8p10-8---6p5-6p5---------5-8---8p10-8---6p5-6p5
D|-6-8------------------------6---6-8-----------------------
A|----------------------------------------------------------
E|----------------------------------------------------------

E|----------8-11-11-11-9-9-9-8-8-8-6-6-6-6\8-----------8-11-
B|-9---9p11----9--9--9-7-7-7-6-6-6-4-4-4-4\6-9----9p11----9-
G|-------------------------------------------8--------------
D|----------------------------------------------------------
A|----------------------------------------------------------
E|----------------------------------------------------------

E|11-11-9-9-9-8-8-8-6-6-6-6\8-----|
B|-9--9-7-7-7-6-6-6-4-4-4-4\6-6---|
G|----------------------------5---|
D|--------------------------------|
A|--------------------------------|
E|--------------------------------|

piano break
verse
bridge
chours

"...little red head bitch!..."

the ending is like the intro and chours and there's little piano bits in there or what 
not so yeah i'm sleepy and going to bed now. enjoy the tab!
Comments