Something Corporate - I Woke Up In A Car Chords & Tabs

 

I Woke Up In A Car Chords & Tabs

Something Corporate Chords & Tabs

Version: 1 Type: Tab 0 ratings
1 star 2 stars 3 stars 4 stars 5 stars
comments

I Woke Up In A Car Tab

Song:I Woke Up In A Car
Band:Something Corporate
Album:Leaving Through the Window
Tabbed by: Eric M. (rufioyc@hotmail.com)

Intro/Verse:Piano starts playing

Play this riff near the end...(x4)
e|---------------------|
B|---------------------|
G|---------------------|
D|--8-8-8-8-10101010---|
A|--6-6-6-6-8-8-8-8----|
E|---------------------|

Chorus:(x4)
e|-----------------------------------------------|
B|-----------------------------------------------|
G|----------------------3-3-3-3|-----------6-----|
D|-4-4-4-4--|8-8-8-8----3-3-3-3|--6-6-6-6--6--6--|
A|-4-4-4-4--|8-8-8-8-or-1-1-1-1|--6-6-6-6--4--6--|
E|-2-2-2-2--|6-6-6-6--------------4-4-4-4-----4--|
[ Tab from: http://www.guitartabs.cc/tabs/s/something_corporate/i_woke_up_in_a_car_tab.html ]
Verse 2:(x4)        then...                (x4)
e|-------------------------|------------------|
B|-------------------------|------------------|
G|--6-6xxx-6-6--8-8xxx-6-6-|------------------|
D|--6-6xxx-6-6--8-8xxx-6-6-|-8-8-8-8-10101010-|
A|--4-4xxx-4-4--6-6xxx-4-4-|-6-6-6-6-8-8-8-8--|
E|-------------------------|------------------|

Bridge
e|----------------------------------------------------|
B|----------------------------------------------------|
G|---------99999999--------6666------------99999999---|
D|-7777777799999999999999996666999977777777999999999~-|
A|-7777777777777777999999994444999977777777777777779~-|
E|-55555555--------77777777----777755555555--------7~-|

Outro:Play the chorus 8 times 

This isn't the best tab, I went way to fast so please,
if you have any corrections email me cause I'd like to
know exactly how to play this song.
Comments