Something Corporate - Hurricane Chords & Tabs

 

Hurricane Chords & Tabs

Something Corporate Chords & Tabs

Version: 3 Type: Tab 0 ratings
1 star 2 stars 3 stars 4 stars 5 stars
comments

Hurricane Tab

-------------------------------------------------------------------------------
			     Hurricane - Something Corporate
-------------------------------------------------------------------------------

Tabbed by: Scott
Email:   sillygoose189@aol.com

Tuning:Normal
[ Tab from: http://www.guitartabs.cc/tabs/s/something_corporate/hurricane_tab_ver_3.html ]
e|---------------------------------------------------------------------------|
B|---------------------------------------------------------------------------|
G|-------------6-6-6-6-6-----------------------------------------------------|
D|--4-4-4-4-4--6-6-6-6-6--6-6-6-6-6------------------------------------------|
A|--4-4-4-4-4--4-4-4-4-4--6-6-6-6-6--8-8--6-6--------------------------------|
E|--2-2-2-2-2-------------4-4-4-4-4--6-6--4-4--------------------------------|

e|---------------------------------------------------------------------------|
B|---------------------------------------------------------------------------|
G|-------------6-6-6-6-6-----------------------------------------------------|
D|--4-4-4-4-4--6-6-6-6-6--6-6-6-6-6--6-6-6-6-6-------------------------------|
A|--4-4-4-4-4--4-4-4-4-4--6-6-6-6-6--6-6-6-6-6-------------------------------|
E|--2-2-2-2-2-------------4-4-4-4-4--4-4-4-4-4-------------------------------|

Palm muted first 25 seconds then distortion for next 2 lines
This is used throughout whole song.
Sweet song
Comments