Something Corporate - Hurricane Chords & Tabs

 

Hurricane Chords & Tabs

Something Corporate Chords & Tabs

Version: 1 Type: Tab 0 ratings
1 star 2 stars 3 stars 4 stars 5 stars
comments

Hurricane Tab

   
##################################################################################
# This file is the author's own work and represents their interpretation of the  #
# song. You may only use this file for private study, scholarship, or research.  #
##################################################################################
“Hurricane” by Something Corporate
Tab by Jay Bartholomew
Standard tuning (EADGBe)

   F               C               G               Am      G
e|-----------------------------------------------------------------|
B|-----------1---------------1---------------3---------1-------3---|
G|-----2---2---2-------0---0---0-------0---0---0---------2-------0-|
D|---3---3-------3---2---2-------2---0---0-------0---2-------0-----|
A|-3---------------3---------------2---------------0-------2-------|
E|-----------------------------------------------------------------|
[ Tab from: http://www.guitartabs.cc/tabs/s/something_corporate/hurricane_tab.html ]
   F               C               G
e|-----------------------------------------3-----------------------|
B|-----------1---------------1-------------------3-----3-----3-----|
G|-----2---2---2-------0---0---0-------0-----0-----0-----0-----0---|
D|---3---3-------3---2---2-------2---0---0-----0-----0-----------0-|
A|-3---------------3---------------2-----------------------2-------|
E|-----------------------------------------------------------------|

Bridge 1
   F5          C5          G5          A5    G5   F5          C5         G5 
e|--------------------------------------------------------------------------|
B|--------------------------------------------------------------------------|
G|-------------5-5--5-5-5-------------------------------------5-5--5-5-5----|
D|-3-3--3-3-3--5-5--5-5-5--5-5--5-5-5--7-7—7-5-5--3-3--3-3-3--5-5--5-5-5-5~-|
A|-3-3--3-3-3--3-3--3-3-3--5-5--5-5-5--7-7-7-5-5--3-3--3-3-3--3-3--3-3-3-5~-|
E|-1-1--1-1-1--------------3-3--3-3-3--5-5-5-3-3--1-1--1-1-1-------------3~-|

(muted)
F5                       C5             G5
Standing there with your smile blinding your eyes from seeing
A5      G5     F5       C5           G5
my face as I'm dying to figure out a girl.

(Guitar 2; play on * chords)
e|-3~-|
B|-1~-|
G|----|
D|----|
A|----|
E|----|


Guitar 2
e|-x-x-8--x-x-8--x-x-8--E...-|
B|-x-x-8--x-x-8--x-x-8--T...-|
G|----------------------C...-|
D|---------------------------|
A|---------------------------|
E|---------------------------|

(above progression)

Questions and comments welcome at jaybar36@hotmail.com.  
Please let me know if you liked this tab.  It took a while 
and I’m not sure if anyone even likes Something Corporate.
Comments