Something Corporate - Forget December Chords & Tabs

 

Forget December Chords & Tabs

Something Corporate Chords & Tabs

Version: 1 Type: Bass Tab 0 ratings
1 star 2 stars 3 stars 4 stars 5 stars
comments

Forget December Bass Tab

   
************************************************************************
Song: Forget December
Band: Something Corporate
Tabbed By: Jeremy L. and Matt M. (soniteam@comcast.net)
************************************************************************
========================================================================

Intro
G |----------------------------------------------------------------|
D |-----------------3-3-3-3-3-3-3-3--------------------------------|
A |-5-5-5-5-5-5-5-5-----------------3-3-3-3-3-3-3-3----------------| x3 
E |-------------------------------------------------3-3-3-3-3-3-3-3|
[ Tab from: http://www.guitartabs.cc/tabs/s/something_corporate/forget_december_btab.html ]
Verse
G |----------------------------------------------------------------|
D |-----------------3-3-3-3-3-3-3-3--------------------------------| 
A |-5-5-5-5-5-5-5-5-----------------3-3-3-3-3-3-3-3----------------|x4
E |-------------------------------------------------3-3-3-3-3-3-3-3|

Chorus
G |-------------------------------------------------------------------|
D |-3-3-3-3-3-3-3-3---------------------------------5-5-5-5-5-3-3-3-3-|
A |-----------------3-3-3-3-3-3-3-3-----------------------------------| x2
E |---------------------------------3-3-3-3-3-3-3-3-------------------|

Interlude
G|-9-10-9-10-9-10-9-10-9-10-9-10-9-10-9-10-12-|
D|--------------------------------------------|
A|--------------------------------------------| x2
E|--------------------------------------------|


========================================================================
I'm pretty sure this is correct. Email me if you think otherwise. Thanks
========================================================================
Comments