Something Corporate - Fall Chords & Tabs

 

Fall Chords & Tabs

Something Corporate Chords & Tabs

Version: 2 Type: Tab 0 ratings
1 star 2 stars 3 stars 4 stars 5 stars
comments

Fall Tab

   
Song:Fall
Band:Something Corporate
Tabbed by:Eric M. (rufioyc@hotmail.com)

This tab is only for Guitar 1. I'm pretty sure
it's perfect. If you have any corrections or
comments please email me. Thanks,


Intro/Verse:Riff1	       (x3)then... Riff2		  (x1)
e|--------------------------------------|----------------------------|
B|--------------------------------------|----------------------------|
G|---------------------------44-44-4444-|----------------------4-----|
D|22-22-2--44-44-4--66-66-6--44-44-4444-|-2------4------6------4-(x8)|
A|22-22-2--44-44-4--66-66-6--22-22-2222-|-2-(x8)-4-(x8)-6-(x8)-2-----|
E|00-00-0--22-22-2--44-44-4-------------|-0------2------4------------|
[ Tab from: http://www.guitartabs.cc/tabs/s/something_corporate/fall_tab_ver_2.html ]
Chorus:(x2)
e|-----------------------------------------|
B|-----------------------------------------|
G|------4444-----------------4444----------|
D|-2222-4444-4444-66-44-2222-4444-44444444-|
A|-2222-2222-4444-66-44-2222-2222-44444444-|
E|-0000------2222-44-22-0000------22222222-|

Repeat Intro/Verse: (Play Riff1 4 times and Riff2 once) 

Repeat Chorus

Interlude:(x4)
e|---------------------------|
B|---------------------------|
G|---------------------------|
D|--66666666666668-98989898--|
A|--66666666666668-98989898--|
E|--44444444444446-76767676--|
  pm.............

Repeat Chorus

End on:
e|---------|
B|---------|
G|---------|
D|--22-----|
A|--22-----|
E|--00-----|
Comments