Something Corporate - 21 And Invincible Chords & Tabs

 

21 And Invincible Chords & Tabs

Something Corporate Chords & Tabs

Version: 3 Type: Tab 0 ratings
1 star 2 stars 3 stars 4 stars 5 stars
comments

21 And Invincible Tab

   
Well. This is the first tab i have submitted to this site. it is correct. I know it is.


     THIS IS THE THING BEFORE THE ACUAL SOLO.

e|-------------------------------------------|
B|-------------------------------------------|
G|-------------------------------------------|
D|-9(b10)9(b10)9(b10)9(b10)9(b10)9(b10)------|
A|-------------------------------------------|
E|-------------------------------------------|

      Here is the acual solo.
e|---------------------------------------------|
B|---------------------------------------------|
G|-12-12-12-12-12-12-12-12-12-12-12-12---------|
D|-------------------------------------9-10-12-|
A|---------------------------------------------|
E|---------------------------------------------|
[ Tab from: http://www.guitartabs.cc/tabs/s/something_corporate/21_and_invincible_tab_ver_3.html ]
e|--------------------------------------------|
B|--------------------------------------------|
G|-----------------------------12-12-12-12-12-|
D|--12-10-9-10-----12-10-9-10-----------------|
A|-------------10-----------------------------|
E|--------------------------------------------|

e|----------------------------------|
B|----------------------------------|
G|-12-12-12-11-11-11-11-12-12-12-12-|
D|----------------------------------|
A|----------------------------------|
E|----------------------------------|


That's it. I'm only 13 years old but I know my Something Corporate. That IS 100% 
if you think it isn't, then your playing it wrong. well...

cya,
Jake
sn: RedsoxnationJE
e-mail: RedsoxnationJE@yahoo.com

IM me or E-mail me for any questions or comments.
Comments