Solu - Fade Chords & Tabs

 

Fade Chords & Tabs

Solu Chords & Tabs

Version: 1 Type: Tab

Fade Tab

e---------------------------------------|
B--3---------2--------h4---4------------|
G--2--(x2)---4--------h4---4------------|
D------------3--------h3---3------------|
A--2---------2--------------------------|
E-------------------3------3------------|
[ Tab from: http://www.guitartabs.cc/tabs/s/solu/fade_tab.html ]
lead
e-----------10----------------------10---------------------------|
B-----10h12-----10h12--10---10h12-------10h12--10----------------|
G---------------------------------------------------12-----------|
D----------------------------------------------------------------|
A----------------------------------------------------------------|
E----------------------------------------------------------------|

ill post some video soon so you guys get what I mean... later

'Sean